Black Sabbath

home > Black Sabbath

Master Of Insanity Bass Tab

Black Sabbath

Difficulty: nolevelnolevel

by eduardo%5Flyvio

tuner correct add songbook print version text version save to e-mail
chordsukulelecavacokeyboardtabbassdrumsharmonicsflute Guitar Pro
chords

Master Of Insanity

Year: 1992 - Album: Dehumanizer

  		Intro                                         x4 
G|-------------------------------------------|  |-------------| 
D|-----------------------3-----5-----8-7-5---|  |-------------| 
A|-6--------4----------2-----4-----6-------7-|  |-6*---Rest---| 
E|----5--0-----3--0--1-----3-----5-----------|  |-------------| 
 
 
Pre-Verse 
G|----------------------------------------------------------------| 
D|---------------------------------------11-10----11-10----11-----| 
A|-6-x-x-x-x-6-8--0-------------------11-------11-------11----9-8\| 
E|------------------7-x-x-x-x-7-9--(0)----------------------------| 
 
 
Verse 
G|------------------------------| 
D|------------------------------| 
A|------------------------------| 
E|-11--11-11-11-11-11-11-Rest---| 
 
G|------------------------------| 
D|------------------------------| 
A|------------------------------| 
E|-11--11-11-11-11-11-11---6*---| 
 
G|------------------------------| |-------| 
D|------------------------------| |-------| 
A|------------------------------| |-------| 
E|-11--11-11-11-11-11-11-Rest---| |-6-5-2-| 
 
 
structure: 
Intro 
Pre-Verse x2 (first guitar plays pre-verse once, bass and drums enter) 
Verse 
... 
 

	  

Search Paypal
auto scroll beats size up size down change color hide chords drawings
tab show chords e-chords YouTube Clip e-chords hide all tabs e-chords go to top tab