Billy Ocean

Stay The Night

Billy Ocean

bass

by  LUCICAMARGO

save to print version add songbook text version e-mail correct tuner
chordsukulelecavacokeyboardtabbassdrumsharmonicaflute Guitar Pro
close

there isn't a video lesson for this song

chords

Stay The Night

	  		
Verse 

G|---------------------------------------| 
D|--4--4--x--2--4-------2--2----------2--| 
A|-----------------2--4-------x--2--4----| 
E|---------------------------------------| 

Bridge 

G|---------------------------------------------| 
D|---------------------------------------------| 
A|--(4)---x--4--x--0--2---x--0--2--2---2--0--2-| 
E|---------------------------------------------| 


G|-----------------------------------------|---------------------------| 
D|-----------------------------------------|---------------------------| 
A|--x--4--x--0--2----x--0--2--2---2--0--2--|--4--x--2--2--x--4---4-----| 
E|-----------------------------------------|------------------------0--| 

Solo 
                                      p  s  p  s  
G|---------------------------------------9-----11--| 
D|--4--4--x--2--4-------2--2-----------------------| 
A|-----------------2--4---------x--2--7-----9------| 
E|-------------------------------------------------| 


G|---------------------------------------| 
D|--4--4--x--2--4-------2--2-------------| 
A|-----------------2--4-------x--2--4----| 
E|------------------------------------0--| 



************************************ 

| x    Dead note 
| (n)  Ghost note 
| s    Slap 

************************************ 
		  

See also:

bass Billy Ocean - Suddenly bass Billy Ocean - Stay The Night
e-chords

Other versions:

bass Billy Ocean - Stay The Night
auto scroll beats size up size down change color hide chords drawings
tab show chords e-chords YouTube Clip e-chords hide all tabs e-chords go to top tab

share