Billy Joe Shaver

Sail Of My Soul

Billy Joe Shaver

bass

save to print version add songbook text version e-mail correct tuner
chordsukulelecavacokeyboardtabbassdrumsharmonicaflute Guitar Pro
close

there isn't a video lesson for this song

chords

Sail Of My Soul

	  		12 bar blues shuffle in G 
 
The double notes are actually triplets  
played with this rhythm: 
 
|x-xx-xx-xx-x|x-xx-xx-xx-x| 
 
 
 
  G                                   C 
G|--------|--------|--------|--------|--------|--------| 
D|--------|--------|--------|--------|-225522-|-225522-| 
A|-225522-|-225522-|-225522-|-2255223|3------3|3-------| 
E|3------3|3------3|3------3|3-------|--------|-------3| 
 
  G                 D        C        G 
G|--------|--------|--------|--------|--------|--------| 
D|--------|--------|-447744-|-225522-|--------|--------| 
A|-225522-|-2255225|5------3|3-------|-225522-|-225522-| 
E|3------3|3-------|--------|-------3|3------3|3------3| 
 
That is the basic structure of the song. 
You can improvise with these runs 
to move from one chord to the next: 
 
  G                 C 
G|--------|--------|--------| 
D|-----225|53322---|-225522-| 
A|-2255---|-----553|3------3| 
E|3-------|--------|--------| 
 
  G                 C 
G|--------|--------|--------| 
D|--------|--------|-225522-| 
A|-225522-|-0011223|3------3| 
E|3------3|3-------|--------| 
 
  G                 C 
G|--------|--------|--------| 
D|-----225|522-----|-225522-| 
A|-2255---|---55223|3------3| 
E|3-------|--------|--------| 
 
  G                 D 
G|--------|--------|--------| 
D|--------|--------|-447744-| 
A|-225522-|-2233445|5-------| 
E|3------3|3-------|--------| 
 
  G                 D 
G|--------|--------|--------| 
D|-----225|522-----|-225522-| 
A|-2255---|---55225|5------3| 
E|3-------|--------|--------| 
		  

Full key step upFull key step up
Half key step upHalf key step up
Half key step downHalf key step down
Full key step downFull key step down
hide glossary

See also:

bass Bob Lind - Dale Anne bass Rodney Atkins - Caught Up In The Country bass Brooks And Dunn - Missing You Bassline bass Garth Brooks - The Dance bass Glen Campbell - I'll Be Lucky Someday bass Brooks And Dunn - Neon Moon2
e-chords

Other versions:

bass Billy Joe Shaver - Sail Of My Soul
auto scroll beats size up size down change color hide chords drawings
tab show chords e-chords YouTube Clip e-chords hide all tabs e-chords go to top tab

share