Billy Idol

home > Billy Idol

Eyes without a face Bass Tab

Billy Idol

Difficulty: BeginnerBeginner

tuner correct add songbook print version text version save to e-mail
chordsukulelecavacokeyboardtabbassdrumsharmonicsflute Guitar Pro
chords

Eyes without a face

Year: 1983 - Album: Billy Idol - Greatest Hits

  		

Song Title: 
 
Tabbed By: Ariel Elizalde
Notes: Hope you enjoy it!!!

Intro
           x4             x4
||---------||-R-||--------||
||---------||-E-||--------||
||---------||-S-||--------||
||-0-0-0-0-||-T-||0-0-0-0-||


Verse

|----------------|--------------|--------------|--------------|
|----------------|--------------|--------------|--------------|
|----6/7-7-7-7-7-|-7\-4-4-4-4-4-|--------------|--------------|
|-7h9------------|--------------|-9\-4-4-4-4-4-|-4/-7-7-7-7-7-|

                                                             x3
||--------------|--------------|--------------|--------------||
||--------------|--------------|--------------|--------------||
||-2/-7-7-7-7-7-|-7\-4-4-4-4-4-|--------------|--------------||
||--------------|--------------|-9\-4-4-4-4-4-|-4/-7-7-7-7-7-||


Chorus

|-----------------|------------------|-8-----------------|--------------------|
|-----------------|------------------|--9----------------|--------------------|
|-----------------|-7----------------|---9\--------------|-----7--------------|
|-7\-5-5-5-5-5--5-|--5/-7-7-7-7-7--7-|------5-5-5-5-5--5-|-5h7---7-7-7-7-7--7-|


|--------------------|-------------------|-8--------------|----------------------|
|-9------------------|-------------------|--9-------------|-3h4------------------|
|---9----------------|-7-----------------|---7\-----------|-----2-4--------------|
|----7\-5-5-5-5-5--5-|---5/-7-7-7-7-7--7-|------2-2-2-2-2-|---------2--4-4-4-4-4-|



|-------------|-----------|--------------|--------------|--------------|
|--5h6--------|-----------|--------------|--------------|--------------|
|------4-6----|-7-7-7-7-7-|-7\-4-4-4-4-4-|--------------|--------------|
|----------4/-|-----------|--------------|-9\-4-4-4-4-4-|-4/-7-7-7-7-7-|


Verse 2
                                                             x2
||--------------|--------------|--------------|--------------||
||--------------|--------------|--------------|--------------||
||-2/-7-7-7-7-7-|-7\-4-4-4-4-4-|--------------|--------------||
||--------------|--------------|-9\-4-4-4-4-4-|-4/-7-7-7-7-7-||


Chorus 2


|-----------------|--------------------|-8------------------|--------------------|
|-----------------|-7------------------|--9-----------------|--------------------|
|-----------------|---7----------------|---9----------------|-----7--------------|
|-7\-5-5-5-5-5--5-|--5-5/-7-7-7-7-7--7-|----7\-5-5-5-5-5--5-|-7h9---7-7-7-7-7--7-|

|--------------------|--------------------|-8----------------|----------------------|
|-9------------------|--------------------|--9---------------|-3h4------------------|
|---7----------------|-----7--------------|---9--------------|-----2-4--------------|
|----7\-5-5-5-5-5--5-|-5h7---7-7-7-7-7--7-|----7\-2-2-2-2-2--|---------2--4-4-4-4-4-|

                         x4
|-------------||---------||----------R---------||
|--5h6--------||---------||----------E---------||
|------4-6----||---------||----------S---------||
|----------4/-||-0-0-0-0-||----------T---------||


Bridge
                  p               x11            p       p  p  p  p
----||------------9----------------||------------9-------6h7-----------|p=pop
----||-----------------------------||-----------------------6h7--------|s=slap
----||--------5h7---7\-55-55-------||--------5h7---7\-55-------7--6h7--|
-12\||-00-00-----------------2-4-5-||-00-00--------------------------0-|
              s     s                        s     s              


Verse 3


|-----------|--------------|--------------|--------------|
|-----------|--------------|--------------|--------------|
|-7-7-7-7-7-|-7\-4-4-4-4-4-|--------------|--------------|
|-----------|--------------|-9\-4-4-4-4-4-|-4/-7-7-7-7-7-|

|--------------|--------------|--------------|--------------|
|--------------|--------------|--------------|--------------|
|-2/-7-7-7-7-7-|-7\-4-4-4-4-4-|--------------|--------------|
|--------------|--------------|-9\-4-4-4-4-4-|-4/-7-7-7-7-7-|

|--------------|--------------|
|--------------|--------------|
|--------------|--------------|
|-7\-4-4-4-4-4-|-4/-7-7-7-7-7-|


Chorus 3

|--------------|-6-----------------|--------------------|--------------------|
|--------------|--7----------------|--------------------|--------------------|
|--------------|---7\-2-2-2-2-2--2-|-6--9\--------------|-----7--------------|
|-5-5-5-5-5--5-|-------------------|-------5-5-5-5-5--5-|-7h9---7-7-7-7-7--7-|

|-8------------------|--------------------|--------------------|
|--9-----------------|--------------------|--------------------|
|---9----------------|-----7--------------|-2h4----------------|
|----7--5-5-5-5-5--5-|-7h9---7-7-7-7-7--7-|-----4-0--2-2-2-2-2-|


|----------------------|----------------------|
|-3h4------------------|-5h6------------------|
|-----2-4--------------|-----4-6--------------|
|---------2--4-4-4-4-4-|---------4\-2-2-2-2-2-|

                                               x4         x4         x4
|----------------------|------------||---------||---------||---------||
|-3h4------------------|-5h6--------||---------||---------||---------||
|-----2-4--------------|-----4-6----||---------||---------||---------||
|---------2--4-4-4-4-4-|---------4\-||-0-0-0-0-||-0-0-0-0-||-0-0-0-0-|| END

	  

Search Paypal
auto scroll beats size up size down change color hide chords drawings
tab show chords e-chords YouTube Clip e-chords hide all tabs e-chords go to top tab