Beyond

Hai Kuo Tian Kong

Beyond

bass

by  SABRJOAO

save to print version add songbook text version e-mail correct tuner
chordsukulelecavacokeyboardtabbassdrumsharmonicaflute Guitar Pro
close

there isn't a video lesson for this song

chords

Hai Kuo Tian Kong

	  		1st Chorus 
  Bb    C            F              Bb        C         F 
G|----------------------------------------------------------------------------| 
D|----------------------------------------------------------------------------| 
A|-/1---------1/3-------------------------/1--------1/3-----------------------| 
E|--------------------------5---------------------------------------5---------| 

                Bb        C          F  Am  Dm   
G|----------------------------------------------------------------------------| 
D|----3--2--------------------------------------------------------------------| 
A|------------3---1----------/1-------1/3-------------------------------------| 
E|-------------------------------------------------5----4----2----------------| 

  Bb        C             
G|-----------------------------------------------------------------------------| 
D|-----------------------------------------------------------------------------| 
A|-----------------------------------------------------------------------------| 
E|-3----------3/5--------------------------------------------------------------| 

Bridge (just piano and bass) 
   Eb            Bb           Bb             C 
G|----------------------------------------------------------------------------| 
D|----------------------------------------------------------------------------| 
A|----------------------------------------------------------------------------| 
E|--8----8--------3------3------3------------3/5~-----------------------------| 


2nd Verse 
  F        C          Dm             Bb 
G|----------------------------------------------------------------------------| 
D|----------------------------------------------------------------------------| 
A|----------3----------3/5--------5-3-1~--------------------------------------| 
E|-5--------------------------------------------------------------------------| 

  F        C            Bb        F 
G|----------------------------------------------------------------------------| 
D|----------------------------------------------------------------------------| 
A|----------3------------1----------------------------------------------------| 
E|-5---------------------------------3----------------------------------------| 

Chorus 
Bb      C            F              Bb        C         F 
G|----------------------------------------------------------------------------| 
D|----------------------------------------------------------------------------| 
A|-/1---------1/3-------------------------/1--------1/3-----------------------| 
E|--------------------------5---------------------------------------5---------| 

                Bb        C          F  Am  Dm   
G|----------------------------------------------------------------------------| 
D|----3--2--------------------------------------------------------------------| 
A|------------3---1----------/1-------1/3-------------------------------------| 
E|---------------------------------------------------5----4----2--------------| 

  Bb        C           F 
G|----------------------------------------------------------------------------| 
D|----------------------------------------------------------------------------| 
A|-1----------1/3-------------------------------------------------------------| 
E|-------------------------5---5-------5----5~~-------------------------------| 


  Bb      C        Dm              Bb     C     F 
G|----------------------------------------------------------------------------| 
D|----------------------------------------------------------------------------| 
A|-1-------1/3------3/5-5-5/----------1-----1/3-------------------------------| 
E|------------------------------------------------------5---------------------| 
                       Bb    C       Dm 
G|----------------------------------------------------------------------------| 
D|----------------------------------------------------------------------------| 
A|-----------0---3-----1-----1/3-----5----/7----/8-(8)-(8)--------------------| 
E|-5---7----------------------------------------------------------------------| 

G|----------------------------------------------------------------------------| 
D|----------------------------------------------------------------------------| 
A|-1------1---------3------3--------5-(5)-(5)---------------------------------| 
E|------5-----------------7---------------------------------------------------| 

Bridge 
    Dm        C           F         C          Dm         C      F 
G|----------------------------------------------------------------------------| 
D|----------------------------------------------------------------------------| 
A|---------------------------------------------------------------1---1-1-1--1-| 
E|--7--7-7----5-5--------3--3-3----5--5-5------7--7-7---5--5-5----------------| 

Choru/ 
Bb      C            F              Bb        C         F 
G|----------------------------------------------------------------------------| 
D|----------------------------------------------------------------------------| 
A|-/1---------1/3-------------------------/1--------1/3-----------------------| 
E|--------------------------5---------------------------------------5---------| 
                Bb        C          F  Am  Dm   
G|----------------------------------------------------------------------------| 
D|----3--2--------------------------------------------------------------------| 
A|------------3---1----------/1-------1/3-------------------------------------| 
E|---------------------------------------------------5----4----2--------------| 
  Bb        C           F 
G|----------------------------------------------------------------------------| 
D|----------------------------------------------------------------------------| 
A|-1----------1/3-------------------------------------------------------------| 
E|-------------------------5~~------------------------------------------------| 

G|----------------------------------------------------------------------------| 
D|----------------------------------------------------------------------------| 
A|----------------------------------------------------------------------------| 
E|-------------------------------------------------------3-3-3-3-3-3-3-3-3-3-3| 

Bb      C            F              Bb        C         F 
G|----------------------------------------------------------------------------| 
D|----------------------------------------------------------------------------| 
A|-/1---------1/3-------------------------/1--------1/3-----------------------| 
E|--------------------------5---------------------------------------5---------| 
                Bb        C          F  Am  Dm   
G|----------------------------------------------------------------------------| 
D|----3--2--------------------------------------------------------------------| 
A|------------3---1----------/1-------1/3-------------------------------------| 
E|---------------------------------------------------5----4----2--------------| 
  Bb        C           F 
G|----------------------------------------------------------------------------| 
D|----------------------------------------------------------------------------| 
A|-1----------1/3-------------------------------------------------------------| 
E|-------------------------5~~------------------------------------------------| 

Solo 
  Bb        C          Dm 
G|----------------------------------------------------------------------------| 
D|----------------------------------------------------------------------------| 
A|-1-1-1-1-----/3-3-3-3-----/5-5-5-5------------------------------------------| 
E|----------------------------------------------------------------------------| 
  Bb        C                 F 
G|----------------------------------------------------------------------------| 
D|----------------------------------------------------------------------------| 
A|-1-1-1-1-----/3-3-3-3-----3-1-----------------------------------------------| 
E|--------------------------------5-5-5-5---------------------------------1---| 



************************************ 
| /   Slide up 
| (x) Ghost note 
************************************ 
		  

Full key step upFull key step up
Half key step upHalf key step up
Half key step downHalf key step down
Full key step downFull key step down
hide glossary

See also:

bass Michael Jackson - Thriller bass Chaka Khan - Tell Me Somthing Good bass Kelly Clarkson - Because Of You bass Stevie Wonder - Superstition bass Placebo - Every You, Every Me bass Newsboys - Hallelujah
e-chords

Other versions:

bass Beyond - Hai Kuo Tian Kong
auto scroll beats size up size down change color hide chords drawings
tab show chords e-chords YouTube Clip e-chords hide all tabs e-chords go to top tab

share