Better Than Ezra

Teenager

Better Than Ezra

bass

by  BIELTENG

save to print version add songbook text version e-mail correct tuner
chordsukulelecavacokeyboardtabbassdrumsharmonicaflute Guitar Pro
close

there isn't a video lesson for this song

chords

Teenager

(Kevin Griffin)

Key:  Em More
Teenager Key BmBm
Teenager Key CmCm
Teenager Key C#mC#m
Teenager Key DmDm(one step down)
Teenager Key D#mD#m(half step down)
Teenager Key EmEm(original key)
Teenager Key FmFm(half step up)
Teenager Key F#mF#m(one step up)
Teenager Key GmGm
Teenager Key G#mG#m
Teenager Key AmAm
Teenager Key A#mA#m
	  		Intro 2x: 

G|-----------------------------------------| 
D|--0h2p0---------------2h4-2-0-0h2p0------| 
A|-------2-0h2p0-----23--------------2-0---| 
E|0-------------3-320--------------------0-| 

Verso 2x: 

G|---------------------| 
D|---------------------| 
A|------------023------| 
E|0-0-02353223----55-3-| 

Refrão: 

G|-------------------------------| 
D|-------------------------------| 
A|---------5(3)-----3(2)----5(3)-| 
E|-3(2)--------------------------| 

Verso 2x: 

G|---------------------| 
D|---------------------| 
A|------------023------| 
E|0-0-02353223----55-3-| 

Refrão: 

G|-------------------------------| 
D|-------------------------------| 
A|---------5(3)-----3(2)----5(3)-| 
E|-3(2)--------------------------| 

Ponte 2x: 

G|---------------------------------------| 
D|-3------3h5--3------5h7p5--3-----------| 
A|---2-3---------2-3-----------2-3--53-2-| 
E|---------------------------------------| 

Instrumental: 

G|-----------------------------------------| 
D|--0h2p0---------------2h4-2-0-0h2p0------| 
A|-------2-0h2p0-----23--------------2-0---| 
E|0-------------3-320--------------------0-| 

Verso 2x: 

G|---------------------| 
D|---------------------| 
A|------------023------| 
E|0-0-02353223----55-3-| 

Refrão 2x: 

G|-------------------------------| 
D|-------------------------------| 
A|---------5(3)-----3(2)----5(3)-| 
E|-3(2)--------------------------| 
		  

auto scroll beats size up size down change color hide chords drawings
tab show chords e-chords YouTube Clip e-chords hide all tabs e-chords go to top tab

share