Bee Gees

home > Bee Gees

New York Mining Disaster 1941 Bass Tab

Bee Gees

Difficulty: nolevelnolevel

tuner correct add songbook print version text version save to e-mail
chordsukulelecavacokeyboardtabbassdrumsharmonicsflute Guitar Pro
chords

New York Mining Disaster 1941

Year: 1967 - Album: Bee Gees' 1st

(Barry & Robin Gibb)

  		



Album: ONE NIGHT ONLY (LIVE)
There is no bass on first verse

Chorus (have you seen my wife mr. Jones?)
E |-------------------------------------------------|
B |------1---------------1---6--6--6--6--5--5-6\----|
F#|-1--1----1--1-1--1--1-------------------------3--|
C#|-------------------------------------------------|


Verse 1 (I keep...)
E |---6----------------------------------------------|
B |------------------3--------------1-3--------------|
F#|-3------3----3---------1----3-----------1--3-1----|
C#|-----------------------------------------------4--|

Chorus

Verse 2
E |---6----6----6-----------------------|
B |------------------3-------------1-3--|
F#|-3---------------------1----3--------|
C#|-------------------------------------|

Chorus

normal tune -eadg-

Chorus -have you seen my wife mr. Jones?-
G|--------------------------------------------------|
D|--------------------------------------------------|
A|------3---------------3---8--8--8--8--7--7-8-\-0--|
E|-3--3----3--3-3--3--3-----------------------------|

Verse 1 -I keep...-
G|--------------------------------------------------|
D|---7----------------------------------------------|
A|------------------5--------------3-5--------------|
E|-5------5----5---------3----5-----------3--5-3-1--|

to chorus

Verse 2
G|-------------------------------------|
D|---7----7----7-----------------------|
A|------------------5-------------3-5--|
E|-5---------------------3----5--------|

to chorus

	  

Search Paypal
auto scroll beats size up size down change color hide chords drawings
tab show chords e-chords YouTube Clip e-chords hide all tabs e-chords go to top tab