Bee Gees

home > Bee Gees

Love So Right Bass Tab

Bee Gees

Difficulty: nolevelnolevel

by ubirbomfim

tuner correct add songbook print version text version save to e-mail
chordsukulelecavacokeyboardtabbassdrumsharmonicsflute Guitar Pro
chords

Love So Right

Year: 1976 - Album: Children of the World

  		

G|------|--------|--------|----------------------|--------|-------6----4-----|-----------------| 
D|------|--------|-2------|-4-----4--------------|-2------|-2----------------|-2-----2---2-----| 
A|------|--------|--------|-----------2----2--4--|--------|------------------|-----------------| 
E|------|--------|--------|----------------------|--------|------------------|-----------------| 

G|---------------------|-------1-----1---|--------------------|---------------------------| 
D|-4-------------------|-----------------|-4-----2----2-------|-2---2----2---4----4----4--| 
A|-------4---0-----0---|-0---------------|-----------------2--|---------------------------| 
E|---------------------|-----------------|--------------------|---------------------------| 

G|------------------------|-----------------|-----------------|-1-----1---------|---------------------------| 
D|--------------2-----2---|-2-----4---------|-----------------|-----------4-----|-2----2-------2---2----2---| 
A|-2---2----2-------------|-------------2---|-0-----0---0-----|-----------------|-----------2---------------| 
E|------------------------|-----------------|-----------------|-----------------|---------------------------| 

G|-----------------|---------------------------|---------------------------|--------| 
D|-4---------------|----------6------------2---|-4----4----2--4---4--------|--------| 
A|-------4---2-----|--------------4----4-------|-----------------------2---|-2------| 
E|-----------------|-4----4--------------------|---------------------------|--------| 

G|-------1--------1------|---------------------------|-----------------------------------| 
D|-----------------------|-----------------------2---|-4----4-------4---2--4---4---------| 
A|-0-----------2------2--|----------2---4----4-------|-----------4-----------------2-2---| 
E|-----------------------|-4----4--------------------|-----------------------------------| 

G|--------|-------1--------1------|---------------------------|--------------------------------| 
D|--------|-----------------------|-----------------------2---|-4-----4---4-2-2---2-4--2---4---| 
A|-2------|-0-----------2------2--|----------2---4----4-------|--------------------------------| 
E|--------|-----------------------|-4----4--------------------|--------------------------------| 

G|-------------------6--4--------|---------------------------|---------------------| 
D|-------------------------2-2---|-2----2---2--2-2--2--2-----|-4-------------------| 
A|-2---2----2---2----------------|---------------------------|-------4---0-----0---| 
E|-------------------------------|---------------------------|---------------------| 

G|-------1-----1---|--------------------|------------------------|------------------------| 
D|-----------------|-4-----2----2-------|-2---2----2---4---------|--------------------6---| 
A|-0---------------|-----------------2--|--------------------4---|-2-----2----------------| 
E|-----------------|--------------------|------------------------|-----------4----4-------| 

G|---------------------------|--------------------|-------------1---|-1-------1-------------------| 
D|----------2---4----4----2--|-4---4--------------|-----------------|-----------------------------| 
A|-4----4--------------------|----------2---2-----|-2-----0---------|------2------2-----------2---| 
E|---------------------------|--------------------|-----------------|----------------4----4-------| 

G|---------------------------|----------------------4----|-------------1---|-1-------1-------------------| 
D|----------2---4----4-------|-4----4--2---4-------------|-----------------|-----------------------------| 
A|-4----4-----------------4--|-----------------2---------|-2-----0---------|------2------2-----------2---| 
E|---------------------------|---------------------------|-----------------|----------------4----4-------| 

G|---------------------------|----------------------------------|-4-------------------| 
D|----------2---4----4-------|-4---4---4---4--4-4-4--------4----|------4--------------| 
A|-4----4-----------------4--|------------------------2---------|-----------0-----0---| 
E|---------------------------|----------------------------------|---------------------| 

G|------------2---2---2-2-------|------------------------|---------------------|------6-----------------| 
D|-------2----------------2-2---|------------------------|---------------------|-----------4----4-------| 
A|-0----------------------------|-----4----0-------------|-----------4-----4---|-4-------------------4--| 
E|------------------------------|--------------4-----4---|-4-----4-------------|------------------------| 

G|----------------------------|---------------------|-4------|-4-----------1---|-1-------1-------------------| 
D|-4---4---------4----4-------|-4---4----4----------|--------|-----------------|-----------------------------| 
A|----------4--------------4--|---------------2-----|--------|-------0---------|------2------2-----------2---| 
E|----------------------------|---------------------|--------|-----------------|----------------4----4-------| 

G|---------------------------|-----------------------|-------------1---|-1-------1-------------------| 
D|----------2---4----4-------|-4----4--2---4---------|-----------------|-----------------------------| 
A|-4----4-----------------4--|-----------------2-----|-2-----0---------|------2------2-----------2---| 
E|---------------------------|-----------------------|-----------------|----------------4----4-------| 

G|---------------------------|-----------------------|-------------1---|-1-------1-------------------| 
D|----------2---4----4-------|-4---4---2---4---------|-----------------|-----------------------------| 
A|-4----4-----------------4--|-----------------2-----|-2-----0---------|------2------2-----------2---| 
E|---------------------------|-----------------------|-----------------|----------------4----4-------| 

G|---------------------------|-----------------------|-------------1---|-1-------1-------------------| 
D|----------2---4----4-------|-4----4--2---4---------|-----------------|-----------------------------| 
A|-4----4-----------------4--|-----------------2-----|-2-----0---------|------2------2-----------2---| 
E|---------------------------|-----------------------|-----------------|----------------4----4-------| 

G|---------------------------|-----------------------|-------------1---|-1-------1-------------------| 
D|----------2---4----4-------|-4----4--2---4---------|-----------------|-----------------------------| 
A|-4----4-----------------4--|-----------------2-----|-2-----0---------|------2------2-----------2---| 
E|---------------------------|-----------------------|-----------------|----------------4----4-------| 

G|---------------------------|-----------------------|--------|--------| 
D|----------2---4----4-------|-4----4--2---4---------|--------|--------| 
A|-4----4-----------------4--|-----------------2-----|-2------|--------| 
E|---------------------------|-----------------------|--------|--------| 
	  

Search Paypal
auto scroll beats size up size down change color hide chords drawings
tab show chords e-chords YouTube Clip e-chords hide all tabs e-chords go to top tab