Bee Gees

home > Bee Gees

Islands in the stream Bass Tab

Bee Gees

Difficulty: AdvancedAdvanced

tuner correct add songbook print version text version save to e-mail
chordsukulelecavacokeyboardtabbassdrumsharmonicsflute Guitar Pro
chords

Islands in the stream

Year: 1988 - Album: One Night Only

(Robin, Maurice & Barry Gibb)

  		






Verse
E |-----------------|	  E |-----------------|
B |-----------------|	  B |-----------------|
F#|-5-5-5-5-5-5-5-5-|	  F#|-----------------|
C#|-----------------| x8     C#|-3-3-3-3-3-3-3-3-| x2

E |-----------------|	  E |-----------------|
B |-----------------|	  B |-----------------|
F#|-5-5-5-5-5-5-5-5-|	  F#|---------------3-|
C#|-----------------| x5     C#|-3-3-3-3-3-3-3---| x2
			     three times, 4th time	
E |-----------------|	  E |------------------------|
B |-----------------|	  B |------------------------|
F#|-5-5-5-5-5-5-5-5-|	  F#|----------------------3-|
C#|-----------------| x2     C#|-3---3-3---3--3-3-3-5---|

E |-----------------------------------------------------------------|
B |-----------------------------------------------------------------|
F#|-5-5-5---5-5-5-5-5-5-5-5-5-5-5---5-5-5-5-5-5-5-5-----------------|
C#|-------3-----------------------3-----------------3-3-3-3-3-3-3-3-|

Chorus
E |---------------------------------------------------
B |---------------------------------------------------
F#|-5--555-5--5---------------7--777-7--7-7--777-7--7-
C#|--------------3--333-3--3--------------------------

E ----------------------------------------------------
B ----------------------------------------------------
F#-5--555-5--5---------------5--555-5--5-5--555-5--5--
C#--------------3--333-3--3---------------------------

E ----------------------------------------|
B ----------------------------------------|
F#-7--777-7--7--5--555-5--5-5-5-5-5-5-5-5-|
C#----------------------------------------|

Verse
Chorus

No Name (guitar solo)
E |----------------------------------------------------------------------------|
B |----------------------------------------------------------------------------|
F#|-------------------------5--555-5--5-5--555-5--5-------------------------5--|
C#|-3--333-3--3-6--666-6--6-------------------------3--333-3--3-6--666-6--6----|

E |-----------------|
B |-----------------|
F#|-----------------|
C#|-3-3-3-3-3-3-3-3-|

Chorus

Two last notes are:
E |---------|
B |-5-------|
F#|-----5---|
C#|---------| x2


tuned to normal -eadg-

Verse
G|-----------------|    G|-----------------|
D|-----------------|    D|-----------------|
A|-2-2-2-2-2-2-2-2-|    A|-----------------|
E|-----------------| x8 E|-0-0-0-0-0-0-0-0-| x2

G|-----------------|    G|-----------------|
D|-----------------|    D|-----------------|
A|-2-2-2-2-2-2-2-2-|    A|---------------0-|
E|-----------------| x5 E|-0-0-0-0-0-0-0---| x2

G|-----------------|    G|------------------------|
D|-----------------|    D|------------------------|
A|-2-2-2-2-2-2-2-2-|    A|----------------------0-|
E|-----------------| x2 E|-0---0-0---0--0-0-0-2---|

G|-----------------------------------------------------------------|
D|-----------------------------------------------------------------|
A|-2-2-2---2-2-2-2-2-2-2-2-2-2-2---2-2-2-2-2-2-2-2-----------------|
E|-------0-----------------------0-----------------0-0-0-0-0-0-0-0-|

Chorus
G|---------------------------------------------------
D|---------------------------------------------------
A|-2--222-2--2---------------4--444-4--4-4--444-4--4-
E|--------------0--000-0--0--------------------------

G----------------------------------------------------
D----------------------------------------------------
A--2--222-2--2---------------2--222-2--2-2--222-2--2-
E---------------0--000-0--0--------------------------

G----------------------------------------|
D----------------------------------------|
A-4--444-4--4--2--222-2--2-2-2-2-2-2-2-2-|
E----------------------------------------|

Verse
Chorus

No Name (guitar solo)
G|-----------------------------------------------------------------------------|
D|-----------------------------------------------------------------------------|
A|-------------------------2--222-2--2-2--222-2--2--------------------------2--|
E|-0--000-0--0-3--333-3--3-------------------------0--000-0--0-3---333-3--3----|

G|-----------------|
D|-----------------|
A|-----------------|
E|-0-0-0-0-0-0-0-0-|

Chorus

Two last notes are:
G|---------|
D|---------|
A|-7-------|
E|-----7---| x2

	  

Search Paypal
auto scroll beats size up size down change color hide chords drawings
tab show chords e-chords YouTube Clip e-chords hide all tabs e-chords go to top tab