Beastie Boys

Time For Livin

Beastie Boys

bass

save to print version add songbook text version e-mail correct tuner
chordsukulelecavacokeyboardtabbassdrumsharmonicaflute Guitar Pro
close

there isn't a video lesson for this song

chords

Time For Livin

Year: 1992 - Album: The Sounds of Science

	  		

Album: Check your head
1992
Bassist: MCA

I heard this song by ear and it sounds just about right. This is my first tab so I hope you all enjoy it!

Beginning
G---------------------------------------------------------------
D---------------------------------------------------------------
A-77777------------------------------------------------------    
E----------33333-555555-----------------------------------

G---------------------------------------------------------------
D---------------------------------------------------------------
A-7-7-77-7-7------------------------------------------------- >little slower listen for timing. 
E---------------3-3-33-3-3-5-5-55-5------------------------

G---------------------------------------------------------------
D---------------------------------------------------------------
A-77777------------------------------------------------------   X4
E---------33333-55555--------------------------------------

G--------------------------------------------------------------
D--------------------------------------------------------------
A-------------7------------------------------------------------ X2
E---5-555-7---7-3333--------------------------------------

G--------------------------------------------------------------
D--------------------------------------------------------------
A-------------------------------------------------------------- X4 listen for timing on cd.
E---00000-33333-00000-33333---00000-33333-00000

G---------------------------------------------------------------
D---------------------------------------------------------------
A-77777------------------------------------------------------ X4
E---------3333333-5555555--------------------------------

G---------------------------------------------------------------
D---------------------------------------------------------------
A-7-7-777-7-------------------------------------------------- X4 slower.
E--------------3-3-333-3-5-5-555-5------------------------

G---------------------------------------------------------------
D---------------------------------------------------------------
A-----------7--------------------------------------------- X2
E-5-55-5--7--7-3-0-3-----------------------------------------

G----------------------------------------------------------------
D-----------------------------------------------------------------
A---------------------------------------------------------------- X4
E-00000-3-33333-00000-3-33333--------------------------
Now all you have to do is repeat the bridge(777,3,5) 2 times at the end!
Thatís it!

		  

See also:

bass Juvenile - Back That Ass Up bass Eminem - Guilty Consience bass Nelly - Dilemma bass Nelly - Dem Boyz bass Eminem - Hailies Song bass Eminem - Lose Urself
e-chords

Other versions:

bass Beastie Boys - Time For Livin
auto scroll beats size up size down change color hide chords drawings
tab show chords e-chords YouTube Clip e-chords hide all tabs e-chords go to top tab

share