Beastie Boys

Right Right Now Now

Beastie Boys

bass

by  BOMBAXXX

save to print version add songbook text version e-mail correct tuner
chordsukulelecavacokeyboardtabbassdrumsharmonicaflute Guitar Pro
close

there isn't a video lesson for this song

chords

Right Right Now Now

Year: 2004 - Album: To The 5 Boroughs

	  		

Intro 

G|---------------|---------------|---------------|---------------| 
D|-2-------------|-2-------------|-2-------------|-2-------------| 
A|---------------|---------------|---------------|---------------| 
E|---------------|---------------|---------------|---------------| 

verse 1 
                                                              (3x) 
G|---------------|---------------|---------------|---------------| 
D|---------------|---------------|---------------|---------------| 
A|---------------|---------------|---------------|---------------| 
E|-0-------------|-0-------------|-0-------------|-0---0--0-0--0-| 

Chorus 1 

G|---------------|---------------|---------------|---------------| 
D|---------------|---------------|---------------|---------------| 
A|-2-------------|-2-------------|-2-------------|-1---1---1-----| 
E|-------------2-|-------------2-|-------------2-|---------------| 

verse 2 
                                                              (3x) 
G|---------------|---------------|---------------|---------------| 
D|---------------|---------------|---------------|---------------| 
A|---------------|---------------|---------------|---------------| 
E|-0-------------|-0-------------|-0-------------|-0---0--0-0--0-| 

Chorus 2 

G|---------------|---------------|---------------|---------------| 
D|---------------|---------------|---------------|---------------| 
A|-2-------------|-2-------------|-2-------------|-1---1---1-----| 
E|-------------2-|-------------2-|-------------2-|---------------| 

Interlude 

G|---------------|---------------|---------------|---------------| 
D|---------------|---------------|---------------|---------------| 
A|-1---1---1--1--|-1---1---1--1--|-2-------------|-2-------------| 
E|---------------|---------------|-------------2-|-------------2-| 

G|---------------|---------------|---------------|---------------| 
D|---------------|---------------|---------------|---------------| 
A|-2-------------|-2-------------|-2-------------|-1---1---1-----| 
E|-------------2-|-------------2-|-------------2-|---------------| 

verse 3 

G|---------------|---------------|---------------|---------------| 
D|---------------|---------------|---------------|---------------| 
A|---------------|---------------|---------------|---------------| 
E|-0-------------|-0-------------|-0-------------|-0---0--0-0--0-| 

G|---------------|---------------|---------------|---------------| 
D|---------------|---------------|---------------|---------------| 
A|---------------|---------------|---------------|---------------| 
E|-0-------------|-0-------------|-0-------------|-0---0---------| 

G|---------------|---------------|---------------|---------------| 
D|---------------|---------------|---------------|---------------| 
A|---------------|---------------|---------------|---------------| 
E|-0-------------|-0-------------|-0-------------|-0---0--0-0--0-| 

Chorus 3 

G|---------------|---------------|---------------|---------------| 
D|---------------|---------------|---------------|---------------| 
A|-2-------------|-2-------------|-2-------------|-1---1---1-----| 
E|-------------2-|-------------2-|-------------2-|---------------| 

Outro 

G|---------------|---------------|---------------|---------------| 
D|---------------|---------------|---------------|---------------| 
A|---------------|---------------|---------------|---------------| 
E|-0-------------|-0-------------|-0-------------|-0---0--0-0--0-| 

G|---------------|---------------|---------------|---------------| 
D|---------------|---------------|---------------|---------------| 
A|---------------|---------------|---------------|---------------| 
E|-0-------------|-0-------------|-0-------------|-0-------------| 
		  

See also:

bass Juvenile - Back That Ass Up bass Eminem - Guilty Consience bass Nelly - Dilemma bass Nelly - Dem Boyz bass Eminem - Hailies Song bass Eminem - Lose Urself
e-chords

Other versions:

bass Beastie Boys - Right Right Now Now
auto scroll beats size up size down change color hide chords drawings
tab show chords e-chords YouTube Clip e-chords hide all tabs e-chords go to top tab

share