Beastie Boys

Girls

Beastie Boys

bass

save to print version add songbook text version e-mail correct tuner
chordsukulelecavacokeyboardtabbassdrumsharmonicaflute Guitar Pro
close

there isn't a video lesson for this song

chords

Girls

Year: 1986 - Album: Licensed to Ill

	  		


By: Tallicaboy

G-----------------------------------------------------------------------------------
D-------3-3-----3-3---2-3-3-----3-3---2-3-3-----3-3---2-3-3-------------------2-3-3-
A-3-5-3-----3-3-----3-------3-3-----3-------3-3-----3-------3-4-5-5-----5-5---------
E-------------------------------------------------------------------5-5-----5-------

G---------------------------
D------3-3---2-3-3-----3-3--
A--3-3-----3-------3-3-----3
E---------------------------

		  

See also:

bass Odd Future - Orange Juice bass Snoop Dogg - Who Am I (What's My Name) bass Eminem - Bonnie And Clyde bass Eminem - The Way I Am bass Dmx - Who We Be bass Eminem - Without Me (ver. 3)
e-chords

Other versions:

bass Beastie Boys - Girls bass Good Charlotte - Girls & Boys bass Good Charlotte - Girls & Boys (ver. 2) bass Good Charlotte - Girls & Boys (ver. 3) bass Good Charlotte - Girls & Boys bass Good Charlotte - Girls & Boys (ver. 2)
auto scroll beats size up size down change color hide chords drawings
tab show chords e-chords YouTube Clip e-chords hide all tabs e-chords go to top tab

share