Barry Ryan

home > Barry Ryan

Whats That Sleeping In My Bed Bass Tab

Barry Ryan

Difficulty: nolevelnolevel

by ang%2Dletra

tuner correct add songbook print version text version save to e-mail
chordsukulelecavacokeyboardtabbassdrumsharmonicsflute Guitar Pro
chords

Whats That Sleeping In My Bed

  		
0:18 

G|----------------------------------------------------------------| 
D|3-----------3---3---3-----------3-----------3---3-------3-------| 
A|----------------------------3-------------------------3-----3---| 
E|----------------------------------------------------------------| 

G|----------------------------------------------------------------| 
D|3-----------3-3-3-------3---5---6-----------------------6-------| 
A|----------------------3---------------------6---------6---------| 
E|------------------------------------------------4---------------| 

G|--------------------------------------------------------5-------| 
D|5-----------------------5-----------------------3h5-------------| 
A|------------5-------------------3-----------3-------------------| 
E|----------------3-----------------------------------------------| 

0:30 

G|----------------------------------------------------------------| 
D|3-----------3---3---3-----------3-----------3---3-------3-------| 
A|----------------------------3-----------------------3-------3---| 
E|----------------------------------------------------------------| 

G|----------------------------------------------------------------| 
D|3-----------3---3-------3---5---6-----------------------6-------| 
A|----------------------3---------------------6-------6-----------| 
E|------------------------------------------------4---------------| 

G|----------------------------------------------------------------| 
D|5-----------5---5-------------------------------3h5-------------| 
A|------------------------5-------3-----------3-----------3-------| 
E|----------------------------3-----------------------------------| 

0:43 

G|------------------------------------------------| 
D|------------------------------------------------| 
A|5-----------5---5---------------5---------------| 
E|------------------------------------------------| 

G|----------------------------------------------------------------| 
D|----------------------------------------------------------------| 
A|----------------------------------------------------------------| 
E|3-------------------------------3-------3-----------------------| 

G|------------------------------------------------| 
D|4-----------4---3-----------3---4-----------4---| 
A|------------------------------------4---4-------| 
E|------------------------------------------------| 

0:54 

G|----------------------------------------------------------------| 
D|3-----------3---3---3-----------3-----------3---3---------------| 
A|----------------------------3-------------------------------3---| 
E|----------------------------------------------------------------| 

G|----------------------------------------------------------------| 
D|3---------------3-------3---5---6---------------6-----------6---| 
A|------------3-------3-----------------------6-------6-----------| 
E|--------------------------------------------------------4-------| 

G|--------------------------------------------------------5-------| 
D|5-----------------------5-----------------------3h5-------------| 
A|------------5-------------------3-----------3-------------------| 
E|----------------3-----------------------------------------------| 

1:06 

G|------------------------------------------------| 
D|------------------------------------------------| 
A|5-----------5---5---------------5-------5-------| 
E|------------------------------------------------| 

G|----------------------------------------------------------------| 
D|----------------------------------------------------------------| 
A|----------------------------------------------------------------| 
E|3-------------------------------3-------3-----------------------| 

G|--------------------------------------------------------| 
D|4-----------4---3-----------3---4-----------4---3-------| 
A|----------------------------------------4---------------| 
E|--------------------------------------------------------| 

1:17 

G|----------------------------------------------------------------| 
D|5-----------5---5---------------5-----------5---5-----3-5-3-5---| 
A|----------------------------------------------------------------| 
E|----------------------------------------------------------------| 

G|----------------------------------------------------------------| 
D|----------------------------------------------------------------| 
A|5-----------5---5-----------5---3-----------3---3-----------3---| 
E|----------------------------------------------------------------| 

G|------------------------------------------------| 
D|4-----------4---3-----------3---4-----------4---| 
A|------------------------------------------------| 
E|------------------------------------------------| 

1:29 

G|----------------------------------------------------------------| 
D|3-----------3---3---3-----------3-----------3---3-------3-------| 
A|----------------------------3-------------------------3-----3---| 
E|----------------------------------------------------------------| 

G|----------------------------------------------------------------| 
D|3---------------3-------3---5---6---------------------------6---| 
A|------------3---------3---------------------6-------------------| 
E|----------------------------------------------------4-----------| 

G|--------------------------------------------------------5-------| 
D|5-----------------------5-----------------------3h5-------------| 
A|------------5-------------------3-----------3-------------------| 
E|----------------3-----------------------------------------------| 

1:42 

G|------------------------------------------------| 
D|------------------------------------------------| 
A|5-----------5---5-----------5---5-----------5---| 
E|------------------------------------------------| 

G|----------------------------------------------------------------| 
D|5-----------5---5-----------5---5-----------5---5-------5---5---| 
A|------------------------------------------------------5---------| 
E|----------------------------------------------------------------| 

G|----------------------------------------------------------------| 
D|----------------------------------------------------------------| 
A|5-----------5---5-----------5---3-----------3---3-----------3---| 
E|----------------------------------------------------------------| 

G|----------------------------------------------------------------| 
D|5-----------------------5-------5-------3-----------------------| x2 
A|----------------------------------------------------------------| 
E|----------------------------------------------------------------| 

Until fadeout. 

G-------------------------------------------------------------------------| 
D|5-----------------------5---------5---------3---------------------------| 
A|------------------------------------------------------------------------| 
E|------------------------------------------------------------------------| 
	  

Search Paypal
auto scroll beats size up size down change color hide chords drawings
tab show chords e-chords YouTube Clip e-chords hide all tabs e-chords go to top tab