Bad Religion

home > Bad Religion

Whisper In Time Bass Tab

Bad Religion

Difficulty: nolevelnolevel

tuner correct add songbook print version text version save to e-mail
chordsukulelecavacokeyboardtabbassdrumsharmonicsflute Guitar Pro
chords

Whisper In Time

Year: 2000 - Album: The New America

  		


 
 
Album: New America
Instrument: Bass
Tuning: Standard
Tabbed by: Spidey255

Intro
G|---------------|
D|----7------5---|
A|-55---5-33---3-|
E|---------------|

Verse
G|--------------------------------------|
D|--------------------------------------|
A|-------0-2-55555-33-5555-77777-5-3-2-|
E|-000-3--------------------------------|

Chorus
G|---------------------------------------------------------------------|
D|---------------------------------------------------------------------|
A|-33-2-3-5-3-2------0-2-3-5555-3-2-0--------0-2-33-2-3-5-3-2----------|
E|--------------3333------------------333323------------------00000000-|

Post Chorus
G|--------------------|
D|--------------------|
A|-5555-3333----------|
E|-----------00000000-|

-repeat post chorus a lot at the end

Ending
G|----------------|
D|----------------|
A|-5-7-5-3-5-3----|
E|-------------0~-|

	  

Search Paypal
auto scroll beats size up size down change color hide chords drawings
tab show chords e-chords YouTube Clip e-chords hide all tabs e-chords go to top tab