Bad Religion

home > Bad Religion

The Handshake Bass Tab

Bad Religion

Difficulty: nolevelnolevel

tuner correct add songbook print version text version save to e-mail
chordsukulelecavacokeyboardtabbassdrummharmonicsflute Guitar Pro
chords

The Handshake

Year: 1994 - Album: Stranger Than Fiction

  		

 by .

*=play 12-13 times  ^=play 9 times  #=play 7-8 times   @=play 3-4 times

# intro (x2) #  %=pause  
G%%%%%%%-|--------------|
D%%%%%%%-|-^------------|
A%%%%%%%-|4------4444222|
E%%%%%%%-|--------------|

# verse part1a #  
G|-------|-------------------|-------|
D|-*-----|-#----------#------|-*-----|
A|4---222|4--421---4-2-----#-|4---222|
E|-------|------424-4-----2--|-------|

# verse part2 # 
G|-------|-------------------|----------------|
D|-*-----|-#----------#------|-^--------------|
A|4---222|4--421---4-2-----#-|4--------4444222|
E|-------|------424-4-----2--|----------------|

# verse part3 # 
G|---------|----------------|
D|--#------|-^--------------|
A|-2-----#-|4-------444421--|
E|------2--|--------------2-|

# chorus1 # 
G|-------------------------------------99------|
D|----#[email protected]#-----64----#-----------------|
A|[email protected]@[email protected]|
E|-------0----------4-----------0------------2-|

Then play intro (x2) 

# verse part1b# 
G|-------|---------------|-------|
D|-*-----|-*------#------|-*-----|
A|4---222|4--421-2-----#-|4---222|
E|-------|------2-----2--|-------|

Then play verse part2, verse part3, chorus, intro (x2) 

# bridge1 #  
G|---6-7-8-9-----------------------|---------------------------------|
D|-7-------------------------------|---------------------------------|
A|-------------------9-7-6-4-6-7-6-|---4-5-6-7---------9-7-6-4-------|
E|-----------4-5-6-7---------------|-5---------4-5-6-7---------7-5-2-|

# bridge1 continued... #
G|--------------------|
D|--------------------|
A|---4-5-6-7--------*-|
E|-5---------4-5-7-4--|

# guitar solo#
G|----------------|----------------|---------|----------------|
D|-^--------------|-^--------------|--#------|-^--------------|
A|4--------4444222|4-------444421--|-2-----#-|4--------4444222|
E|----------------|--------------2-|------2--|----------------|

# verse part1c #
G|-------|---------------|----------------|------------|
D|-*-----|-*------#------|-^--------------|-^----------|
A|4---222|4--421-2-----#-|4--------4444222|4-----4-4-4-|
E|-------|------2-----2--|----------------|------------|

# chorus2 #
G|-------------------------------------------|
D|----#-------#-----------#-------#----------|
A|---0----#--2---444242--0----#--2---444242--|
E|-------0-------------40----0-------------40|

# bridge2 #
G|---------------------------------|---------------------------------|
D|---------------------------------|---------------------------------|
A|---44556677--------99776644667766|---44556677--------99776644------|
E|-55--------44556677--------------|-55--------44556677--------775522|

# bridge2 continued...#        x2
G|-----------------------------|----------------|
D|[email protected]|----2-----------|
A|[email protected]|0-------2-------|
E|-----420-0024---4-4--------42|------------2---|

# Ending #
G|----------------|
D|----------------|
A|4444444--444442-|
E|----------------|

SIMPLY ASTONISHING!!! 

Tabbed by Filippo Frigeri (30.01.2004)

	  

Search Paypal
auto scroll beats size up size down change color hide chords drawings
tab show chords e-chords YouTube Clip e-chords hide all tabs e-chords go to top tab