Bad Religion

home > Bad Religion

Sorrow (ver. 2) Bass Tab

Bad Religion

Difficulty: nolevelnolevel

tuner correct add songbook print version text version save to e-mail
chordsukulelecavacokeyboardtabbassdrumsharmonicsflute Guitar Pro
chords

Sorrow (ver. 2)

  		

 
Album: Process Of Belief
 

Normal Tuning

Intro (The bass plays a little offbeat)
G----------------------------------------------
D----------------------------------------------
A---3-5-----3-7-5---3-5-7-7-3-5----------------
E-3-----3-3-------3-------------33333333333332-

Verse
G--------------------------------------------------------------------------------
D--------------------------------------------------------------------------------
A------3333-5555--------------3333-7777-55555555555555-------3333-555-7777777777-
E-0000-----------333333333333--------------------------33333---------------------

G-------------------------
D-------------------------
A-7775-------3333-5555----
E-----75-000-----------32-

Chorus
G------------------------------------------------------------------------------------
D------------------------------------------------------------------------------------
A-----3333----------------33333--------------3333------7777-555555555555320----------
E-000------333333222-0000-------33333322-000------3333----------------------33333-32-

Thats it i think
[email protected]

	  

Search Paypal
auto scroll beats size up size down change color hide chords drawings
tab show chords e-chords YouTube Clip e-chords hide all tabs e-chords go to top tab