Bad Religion

home > Bad Religion

Shattered Faith Bass Tab

Bad Religion

Difficulty: nolevelnolevel

tuner correct add songbook print version text version save to e-mail
chordsukulelecavacokeyboardtabbassdrummharmonicsflute Guitar Pro
chords

Shattered Faith

  		


 
Title: 
Album: The Process Of Belief (B-Side)
Bassist: Jay Bentley
Tabbed By: The Hampster Wheel ([email protected])

Notes:

* means it is played 16 times

---------------------------------------------------

Intro/Chorus
G------------------
D------------------
A-5*--1*------3*---
E---------1*-------

Pre-Verse1
G----------
D----------
A-0*--5----
E----------

Verse Riff1
G--------------------------------
D--------------------------------
A-5-5---5---1---------------3----
E-----------------1-1---1--------

Verse Riff2
G--------------------------------
D--------------------------------
A-1-1-0-0---------1-3---3--------
E---------3-3-1p0----------------

Pre-Verse2
G--------------
D--------------
A-0*--0*--5\---
E--------------

Pre-Verse3
G-----------
D-----------
A-0*--0*----
E-----------

Verse Riff3
G---------------------------------
D---------------------------------
A-5-5-5-5-5-1-1-1-----------3-3-3-
E-----------------1-1-1-1-1-------

End of bridge
G--------------
D--------------
A-3------0-3---
E--------------

---------------------------------------------------

Extra Notes:

Sometimes the chorus changes from:

G---------------------------------
D---------------------------------
A-5-5-5-5-5-5-5-5-5-5-5-5-5-5-5-5-
E---------------------------------

to

G---------------------------------
D-------------------------3-2-----
A-5-5-5-5-5-5-5-5-5-5-5-5-----5-5-
E---------------------------------

You just gotta listen for when.

---------------------------------------------------

Song Structure:

Intro 1x
Pre-Verse1 1x

Verse Riff1 2x
Verse Riff2 1x
Verse Riff1 2x
Verse Riff2 1x

Chorus 2x
Pre-Verse2 1x

A-5-

Verse Riff1 2x
Verse Riff2 1x
Verse Riff1 2x
Verse Riff2 1x

Chorus 2x
Pre-Verse3 1x

Verse Riff3 16x
Pre-Verse1 1x

End of bridge 1x

Chorus until fades out (appx. 6x)

Enjoy.

	  

Search Paypal
auto scroll beats size up size down change color hide chords drawings
tab show chords e-chords YouTube Clip e-chords hide all tabs e-chords go to top tab