Bad Religion

home > Bad Religion

Pity The Dead Bass Tab

Bad Religion

Difficulty: nolevelnolevel

tuner correct add songbook print version text version save to e-mail
chordsukulelecavacokeyboardtabbassdrumsharmonicsflute Guitar Pro
chords

Pity The Dead

Year: 1996 - Album: Tested

  		

 
 
Tabbed by: greendaypunk

G:----------------------|------------------------------------------|
D:----------------------|------------------------------------------|
A:-7--7---5-5-----------|-7--7---5-5-------------2-2-2-2-2-2-2-2-2-|
E:--------------3-3--5-5|--------------3-3--5-5--------------------|

G:----------------------|-------------------|
D:----------------------|-------------------|
A:-7--7---5-5-----------|-7-7--5-5--0-0--2-2|
E:--------------3-3--5-5|-------------------|

G:------------------------------------------------------------------------|
D:------------------------------------------------------------------------|
A:-7-7---5-5--------3-3-3-3-3-3-3-3-3-3-3-3----5------------7-7--5-5--2-2-|
E:-------------3-3--------------------------------------------------------|

G:-------------------------------------------------------------------------------|
D:-------------------------------------------------------------------------------|
A:---------------------5-5-5-5---------------------------------5-5-5-5-----------|
E:--0-0-0-0--3-3-3-3--------------0-0-0-0---0-0-0-0--3-3-3-3------------5-5-5-5--|
    G:------------------------------------------------------------|
    D:------------------------------------------------------------|
    A:----------3-3-3-3---------5-5-5-5---------------------------|
    E:-0-0-0-0----------3-3-3-3----------0-0-0-0--3-3-3-3-5-5-5-5-|

G:----------------------|-------------------|----------------------|-------------------|
D:----------------------|-------------------|----------------------|-------------------|
A:-7--7---5-5-----------|-7-7--5-5--0-0--2-2|-7--7---5-5-----------|-7-7--5-5--0-0--2-2|
E:--------------3-3--5-5|-------------------|--------------3-3--5-5|-------------------|

G:------------------------------------------------|
D:------------------------------------------------|
A:-7-7---5-5--------3-3-3-3-3-3-3-3-3-3-3-3----5--|
E:-------------3-3--------------------------------|

G:-------------------------------------------------------------------------------|
D:-------------------------------------------------------------------------------|
A:---------------------5-5-5-5---------------------------------5-5-5-5-----------|
E:--0-0-0-0--3-3-3-3--------------0-0-0-0---0-0-0-0--3-3-3-3------------5-5-5-5--|
    G:------------------------------------------------------------|
    D:------------------------------------------------------------|
    A:----------3-3-3-3---------5-5-5-5---------------------------|
    E:-0-0-0-0----------3-3-3-3----------0-0-0-0--3-3-3-3-5-5-5-5-|

G:----------------------------------------------|---------------------------------|
D:----------------------------------------------|---------------------------------|
A:--3-3-3-3----5-5-5-5----7-7-7-7-----2-2-2-2---|--3-3-3-3----5-5-5-5----7-7-7-7--|
E:----------------------------------------------|---------------------------------|

G:------------------------------------|-------------------------------------------|
D:------------------------------------|-------------------------------------------|
A:--3-3-3-3----5-5-5-5----7-7-7-7-----|-------------5-5-5-5----3-3-3-3----5-5--7--|
E:------------------------------------|--3-3-3-3----------------------------------|

G:-------------------------------------------------------|
D:-------------------------------------------------------|
A:-----------------5//\\----------------------5//\\------|	x2
E:--0--0-0--0-0----------------0--0-0--0-0---------------|

G:-----------------------------------------|
D:-----------------------------------------|
A:------------3-3-3-3-------------5-5-5-5--|
E:--0-0-0-0-------------0-0-0-0------------|
 	"Tell me what you see..."
G:-------------------------------|
D:-------------------------------|
A:--3-3-3-3---5-5-5-5---7-7-7-7--|
E:-------------------------------|

G:-------------------------------------------------|
D:-------------------------------------------------|
A:------------5-5-5-5---3-3-5-5---7-7-7-7---9-7-2--|
E:--3-3-3-3----------------------------------------|
	"Let's go!"
G:----------------------|-------------------|
D:----------------------|-------------------|
A:-7--7---5-5-----------|-7-7--5-5--0-0--2-2|
E:--------------3-3--5-5|-------------------|

G:-----------------------------------------------------------------|
D:-----------------------------------------------------------------|
A:-7-7---5-5--------3-3-3-3-3-3-3-3-3-3-3-3----5-5-5-5----2-2-2-2--|
E:-------------3-3-------------------------------------------------|

G:----------------------|-------------------|
D:----------------------|-------------------|
A:-7--7---5-5-----------|-7-7--5-5--0-0--2-2|
E:--------------3-3--5-5|-------------------|

G:------------------------------------------------------------------------|
D:------------------------------------------------------------------------|
A:-7-7---5-5--------3-3-3-3-3-3-3-3-3-3-3-3----5------------7-7--5-5--2-2-|
E:-------------3-3--------------------------------------------------------|

G:-------------------------------------------------------------------------------|
D:-------------------------------------------------------------------------------|
A:---------------------5-5-5-5---------------------------------5-5-5-5-----------|
E:--0-0-0-0--3-3-3-3--------------0-0-0-0---0-0-0-0--3-3-3-3------------5-5-5-5--|
    G:------------------------------------------------------------|
    D:------------------------------------------------------------|
    A:----------3-3-3-3---------5-5-5-5---------------------------|
    E:-0-0-0-0----------3-3-3-3----------0-0-0-0--3-3-3-3-5-5-5-5-|

G:---------------------|
D:---------------------|
A:--3-3-3-3---5-5-5-5--|	x3
E:---------------------|

G:----------------------|--------------------|---------------------------------------------|
D:----------------------|--------------------|---------------------------------------------|
A:-7--7---5-5-----------|-7-7--5-5-----------|-7--7---5-5-------------2-2-2-2-2-2-2-2-2----|
E:--------------3-3--5-5|-----------3-3--5-5-|--------------3-3--5-5---------------------0-|

	  

Search Paypal
auto scroll beats size up size down change color hide chords drawings
tab show chords e-chords YouTube Clip e-chords hide all tabs e-chords go to top tab