Bad Religion

home > Bad Religion

Part Iv Bass Tab

Bad Religion

Difficulty: nolevelnolevel

by tamamoreira

tuner correct add songbook print version text version save to e-mail
chordsukulelecavacokeyboardtabbassdrumsharmonicsflute Guitar Pro
chords

Part Iv

Year: 1988 - Album: Suffer

  		
verse 1 
G|-----|--------------| 
D|-----|--------------| 
A|-5---|-----5--------|  X6  
E|---3-|-5-8----5-8-3-| 

Chorus 
G|--------------------------------| 
D|--------------------------------| 
A|-----5-53-------5-53-----5-8-10-| 
E|-1-3-----53-1-3------1-3--------| 

verse 2 
G|---------------| 
D|---------------| 
A|-----5---------| x6  
E|-5-8----5-8-3--| 

Chorus 
G|--------------------------------| 
D|--------------------------------| 
A|-----5-53-------5-53-----5-8-10-| 
E|-1-3-----53-1-3------1-3--------| 

G|--------------| 
D|--------------| 
A|-----5--------| 
E|-5-8----5-8-3-| 

Breakdown 
G|----------------------------------------------------------| 
D|----------------------------------------------------------| 
A|-5------3-5-8-7-----------3-5-8-7-------------------5-----| 
E|---3--5---------5-1-3--5----------5-1-3--5-1-3--5-1---3---| 

G|---------------| 
D|---------------| 
A|-----5---------| x2 
E|-5-8-----5-8-3-| 

Chorus 
G|-----------------------------------| 
D|-----------------------------------| 
A|-----5-53-------5-53--------5-8-10-| 
E|-1-3-----53-1-3-----53--1-3--------| 

G|-------------|---| 
D|-------------|---|x2 
A|-----5-------|---| 
E|-5-8---5-8-3-|-5-| 
	  

Search Paypal
auto scroll beats size up size down change color hide chords drawings
tab show chords e-chords YouTube Clip e-chords hide all tabs e-chords go to top tab