Bad Religion

home > Bad Religion

Part III Bass Tab

Bad Religion

Difficulty: nolevelnolevel

tuner correct add songbook print version text version save to e-mail
chordsukulelecavacokeyboardtabbassdrumsharmonicsflute Guitar Pro
chords

Part III

Year: 1991 - Album: How Could Hell Be Any Worse?

  		



BY 
TUNING: Normal

Another great song by GG and company.

G----------------------------------------------------------------------------- --------- 
D----------------------------------------------------------------------------- ---------- 
A-0-0-0-0-0-0-0-0-3-3-3-3-3-3-3-3---------------------------------0-0-0-0-0-0-0-0 
E--------------------------------------------3-3-3-3-3-3-3-3------------------ ---- 

G----------------------------------------------------------------------------- ------------------------------- 
D------------------------------------------------5-5-5-5-5-5-5-5-2-2-2-2-2-2-2-2-- ------------------- 
A-0-0-0-0-0-0-0-0-3-3-3-3-3-3-3-3------------------------------------------------------------------
E----------------------------------------------------------------------------- ------------------------------- 

Tabbed by Bankshot

	  

Search Paypal
auto scroll beats size up size down change color hide chords drawings
tab show chords e-chords YouTube Clip e-chords hide all tabs e-chords go to top tab