Bad Religion

home > Bad Religion

Give You Nothing Bass Tab

Bad Religion

Difficulty: nolevelnolevel

tuner correct add songbook print version text version save to e-mail
chordsukulelecavacokeyboardtabbassdrummharmonicsflute Guitar Pro
chords

Give You Nothing

Year: 1988 - Album: Suffer

  		




intro                                                               2x
G----------------------------------------------------------------------
D-------------------------------------------------------------7--5h7p5-
A-7-7-7-10--10-10-10--5-5-5----------7-7-7-10--10-10-10-5-5-5----------
E---------------------------5--5-5-5-----------------------------------

 verse one                                                          2x
G----------------------------------------------------------------------
D----------------------------------------------------------------------
A-7-7-7-10--10-10-10--5-5-5----------7-7-7-10--10-10-10-5-5-5----------
E---------------------------5--5-5-5--------------------------5--5-5-5-


 chorus
G-----------------------------------------------------------------
D-----------------------------------------------------------------
A-----------------------------------------------------------------
E-8-8-8-8-8-8-8-8-8-8-8-8-8-8-8-8-7-7-7-7-7-7-7-7-6-6-6-6-5-5-5-5-

G----------------------------------------------------------------------
D-------------------------------------------------------------7--5h7p5-
A-7-7-7-10--10-10-10--5-5-5----------7-7-7-10--10-10-10-5-5-5----------
E---------------------------5--5-5-5-----------------------------------

G-------------------------------------------
D-------------------------------------------
A-------------------------------------------
E-8-x-8-x-8-x-8-x-8-x-8-x-8-x-8/17\--------- end chorus


 transition to verse two
G------------------------------------
D------------------------------------
A-12\7-7-7-7-7-7-7-7-7-7-7-7-7-7-7-7-
E------------------------------------

 verse two                                                           2x
G----------------------------------------------------------------------
D----------------------------------------------------------------------
A-7-7-7-10--10-10-10--5-5-5----------7-7-7-10--10-10-10-5-5-5----------
E---------------------------5--5-5-5--------------------------5--5-5-5-


 Chorus
G-----------------------------------------------------------------
D-----------------------------------------------------------------
A-----------------------------------------------------------------
E-8-8-8-8-8-8-8-8-8-8-8-8-8-8-8-8-7-7-7-7-7-7-7-7-6-6-6-6-5-5-5-5-

G----------------------------------------------------------------------
D-------------------------------------------------------------7--5h7p5-
A-7-7-7-10--10-10-10--5-5-5----------7-7-7-10--10-10-10-5-5-5----------
E---------------------------5--5-5-5-----------------------------------

G-------------------------------
D-------------------------------
A-------------------------------
E-8-x-8-x-8-x-8-x-8-x-8-x-8-x-8- 


 break
G------------------------------------------------------------------------------------
D---------------------------------------------------------------------5h7--5h7-5h7-5-
A-7--7\---------------5--5---------4-5-6-7--7\---------------5--5--------------------
E-----------3--3----------------5------------------3--3------------------------------

G-------------------------------------------------------------------------------
D-------------------------------------------------------------------------------
A-7--7\---------------5--5---------4-5-6-7--7\---------------5--5---------4-5-6-
E-----------3--3----------------5------------------3--3----------------5--------

G-------------------------------------------------------------------------------
D-------------------------------------------------------------------------------
A-7--7\---------------5--5---------4-5-6-7--7\---------------5--5---------4-5-6-
E-----------3--3----------------5------------------3--3----------------5--------

G-----------------------------------------------------------------
D-----------------------------------------------------------------
A-3-3-3-3-3-3-3-3-3-3-3-3-3-3-3-3-5-5-5-5-5-5-5-5-5-5-5-5-5-5-5-5-
E-----------------------------------------------------------------

G-------------------------------------------------------------------------
D-------------------------------------------------------------------------
A-7\----------7---7\----------0-/7---------7---7\----------------------12\-
E-------------------------------------------------------------------------- end break

 
 verse three                                                         2x
G----------------------------------------------------------------------
D-------------------------------------------------------------7--5h7p5-
A-7-7-7-10--10-10-10--5-5-5----------7-7-7-10--10-10-10-5-5-5----------
E---------------------------5--5-5-5-----------------------------------


 last chorus                                                          2x
G-----------------------------------------------------------------------
D-----------------------------------------------------------------------
A-----7-7-8-8-10-10-----7-7-8-8-10-10-----10-10-8-8-7-7-----8-8-7-7-7-7-
E-8-8---------------8-8---------------7-7---------------6-6-------------

G----------------------------------------------------------------------
D-------------------------------------------------------------7--5h7p5-
A-7-7-7-10--10-10-10--5-5-5----------7-7-7-10--10-10-10-5-5-5----------
E---------------------------5--5-5-5-----------------------------------


 end
G----------------------------------------
D----------------------------------------
A-7-7-7-10--10-10-10--5-5-5----------7\--
E---------------------------5--5-5-5-----

	  

Search Paypal
auto scroll beats size up size down change color hide chords drawings
tab show chords e-chords YouTube Clip e-chords hide all tabs e-chords go to top tab