Bad Religion

home > Bad Religion

21st century digital boy Bass Tab

Bad Religion

Difficulty: nolevelnolevel

tuner correct add songbook print version text version save to e-mail
chordsukulelecavacokeyboardtabbassdrummharmonicsflute Guitar Pro
chords

21st century digital boy

  		

 - 
Album - Stranger than Fiction
Tabbed by Tom Abell

Intro
G--------------------------------
D--------------------------------
A------4444444444444444----------
E--------------------------------

Verse
Part 1
G----------------------------
D----------------------------
A-----44---------------------
E--------00-22-55-44---------

Part 2
G----------------------------------
D----------------------------------
A----44----22------44--------------
E-------00----22------000-2-4------

Chorus
Part 1 (x2)
G-----------------------------------
D-----------------------------------
A---4444-0000------2222-------------
E-------------0000------------------

Part 2
G--------------------------------------------------------------
D--------------------------------------------------------------
A--4444-0000-----------4444-0000-------------------------------
E------------0000-2222-----------0000-2222-4444444444444444----

Before solo
G---------------------------------------------------------------------
D---------------------------------------------------------------------
A-2222222222222222----------------------------------------------------
E-----------------2222222222222222-55555555-00000000-4444444444444444-

During solo
Part 1 (x2)
G-----------------------------------
D-----------------------------------
A---4444-0000------2222-------------
E-------------0000------------------

Part 2
G--------------------------------------------------------------
D--------------------------------------------------------------
A--4444-0000-----------4444-0000-------------------------------
E------------0000-2222-----------0000-2222-4444444444444444----

End
G--------------------------------------------------------
D--------------------------6-4-2-1-2-1-------------------
A--------------------------------------4-2-4~~~~~4\------
E--444444444444444444444444------------------------------

	  

Search Paypal
auto scroll beats size up size down change color hide chords drawings
tab show chords e-chords YouTube Clip e-chords hide all tabs e-chords go to top tab