Bad Religion

home > Bad Religion

*** Armageddon This Is Hell Bass Tab

Bad Religion

Difficulty: nolevelnolevel

tuner correct add songbook print version text version save to e-mail
chordsukulelecavacokeyboardtabbassdrumsharmonicsflute Guitar Pro
chords

*** Armageddon This Is Hell

  		

 - 
Album - How could hell be any worse?
Tabbed by Tom Abell

Intro (x6)
G------------------------l-------
D------------------------l-------
A-----00000000-55555555--l--7----
E------------------------l-------

Verse
G--------------------------------
D--------------------------------
A-------77-77--540-540-----------
E--------------------------------

Part 1 (x2)
G---------------------------------------
D---------------------------------------
A--77777777-540-540--77777777-540-540---
E---------------------------------------

Part 2
G-----------------------------------------
D-----------------------------------------
A--77777777-55555555-3333-2222-00000000---
E-----------------------------------------

Chorus
Part 1
G-----------------------------------------
D-----------------------------------------
A--77777777-55555555-3333-5555-7777777----
E-----------------------------------------

Part 2 (x3)
G--------------------------------
D--------------------------------
A-----3333-5555-77777777---------
E--------------------------------

During Solo
G--------------------------------------------------------
D--------------------------------------------------------
A--77777777-540-540--77777777-540-540--77777777-540-540--
E--------------------------------------------------------

G----------------------------
D-----------87---------------
A--7777777-----87------------
E-----------------87-7788----

End
G-------------------------------
D-------------------------------
A---3333-5555-77777~~~~~--------
E-------------------------------

	  

Search Paypal
auto scroll beats size up size down change color hide chords drawings
tab show chords e-chords YouTube Clip e-chords hide all tabs e-chords go to top tab