Bad Company

home > Bad Company

The Way I Choose Bass Tab

Bad Company

Difficulty: nolevelnolevel

by marcnagel

tuner correct add songbook print version text version save to e-mail
chordsukulelecavacokeyboardtabbassdrumsharmonicsflute Guitar Pro
chords

The Way I Choose

Year: 2007 - Album: Bad Company

  		Gtr I (E A D G) - 'Boz Burrell - Bass' 

  Intro 
  Q=62 
  6/8 
  Gtr I 
   W        W        Q.   E  E  E 
G|--------|--------|--------11-12-| 
D|--------|--------|--------12-14-| 
A|--------|--------|--------------| 
E|--------|--------|--------------| 


    Q.    +Q   S S   Q.   +Q   S S   Q.   +Q   S S 
G|-12----(12)------|---------------|---------------|| 
D|-14----(14)------|---------------|---------------|| 
A|-----------------|---------------|---------------|| 
E|---------------0-|-0----(0)----0-|-0----(0)----0-|| 


  1st Verse 
     Q.   +Q   S S   Q.   +Q   S S 
G||----------------|---------------| 
D||o---------------|---------------| 
A||o---------------|---------------| 
E||--2----(2)----2-|-2----(2)----2-| 


                  1.                2. 
   Q.   +Q   S S   Q.   +Q   S S     Q.   Q. 
G|---------------|----------------||------------|| 
D|---------------|---------------o||------------|| 
A|---------------|---------------o||------------|| 
E|-0----(0)----0-|-0----(0)----2--||-0----4-----|| 


 Chorus 
   Q.   Q.     Q.   E E E   Q  +S  S Q  E   Q.   E E E   Q  +S  S Q  E 
G|-----------|------------|---------------|------------|---------------| 
D|-----------|------------|---------------|------------|---------------| 
A|-0----2----|-4--------2-|-0--(0)-0-2----|-4--------2-|-0--(0)-0-2----| 
E|-----------|--------4---|---------------|--------4---|---------------| 


   Q  S S S S E E   Q.   +E  E E   E Q  E E E   Q.   E S S S S 
G|----------------|--------------|------------|-----------------| 
D|----------------|----------4---|------------|-----------------| 
A|-4----4-4-------|--------------|-0--------2-|-4----------2----| 
E|------------4-4-|-2----(2)---2-|------4-4---|--------4--------| 


   Q.   E E E   Q.   E E E   E Q   E  E  E    Q.   +Q   S S 
G|------------|------------|------13\-------|---------------|| 
D|------------|------------|----------9\----|---------------|| 
A|-4--------2-|-4--------2-|-4-----------7\-|---------------|| 
E|------4-4---|--------4---|----------------|-0----(0)----2-|| 


  2nd Verse 
     Q.   +Q   S S   Q.   +Q   S S 
G||----------------|---------------| 
D||o---------------|---------------| 
A||o---------------|---------------| 
E||--2----(2)----2-|-2----(2)----2-| 


                  1.                2. 
   Q.   +Q   S S   Q.   +Q   S S     Q.   Q. 
G|---------------|----------------||------------|| 
D|---------------|---------------o||------------|| 
A|---------------|---------------o||------------|| 
E|-0----(0)----0-|-0----(0)----2--||-0----4-----|| 


 Chorus 
   Q.   Q  S S   Q  S S S E S E    Q  +S  S Q  E   Q  S S Q  E   Q.   Q  E 
G|-------------|----6-4-6--------|---------------|-------------|------------| 
D|-------------|--------------6\-|---------------|-------------|------------| 
A|-0----2----2-|-4----------5----|-0--(0)-0-2----|-4----2-4----|------------| 
E|-------------|-----------------|---------------|-----------4-|-0----4-----| 


   Q  S S E E E   Q.   E E E    E Q  E S S E   Q.   E S S S S   Q  S S E E E 
G|--------------|-------------|--------------|----------------|---------------|| 
D|--------------|------4---4\-|--------------|----------------|----------2-3--|| 
A|-4----2-4-2---|-------------|------------2-|-4----------2---|-4----2-4------|| 
E|------------4-|-2------2----|-0----4-4-----|--------4-------|---------------|| 


 Guitar Solo 
   Q.   E S S E   Q  S S E E E   Q.    E  E  E    Q.   +E  E E   Q.   E E E 
G|--------------|--------------|------11-12-13\-|--------------|------------| 
D|-4----------2-|-4----2-4-2---|----------------|----------4---|------------| 
A|--------4-----|------------4-|----------------|-2----(2)---2-|-4--------2-| 
E|--------------|--------------|-0--------------|--------------|--------4---| 


   Q  S S E E E   Q.   E S S E   Q.   E S S S S 
G|--------------|--------------|----------------| 
D|----------2-3-|-4----------2-|-4--------------| 
A|-4----0-4-----|--------4-----|--------2---2---| 
E|--------------|--------------|----------------| 


   Q.    E  E  E    Q.   S S E E 
G|------11-12-13\-|------4--------| 
D|----------------|----------4----| 
A|----------------|-2----------2--| 
E|-0--------------|---------------| 


                                                 3rd Verse 
   Q.   E S S S S   E Q  Q  E    Q.   +Q   S S     Q.   +Q   S S   Q.   Q  E 
G|----------------|------------|---------------||----------------|-----------| 
D|----------------|------------|---------------||o-------------4-|-4----6--4-| 
A|-4----------2---|-4-------4\-|---------------||o---------------|-----------| 
E|--------4-------|------------|-0----(0)----2-||--2----(2)------|-----------| 


                                                 Chorus 
                  1.                2. 
   Q.   +Q   S S   Q.   +Q   S S     Q.   Q.      Q.   Q  S S   Q  S S E E E 
G|---------------|----------------||-----------||-------------|----6-4-6-----| 
D|---------------|---------------o||-----------||-------------|------------6-| 
A|---------------|---------------o||-----------||-0----2----2-|-4------------| 
E|-0----(0)----0-|-0----(0)----2--||-0----4----||-------------|--------------| 


   Q  +S  S Q  S S   Q.   S S E E   Q.   Q  S S 
G|-----------------|------6-------|-------------| 
D|-----------------|----------6---|-------------| 
A|-0--(0)-0-2----0-|-4------------|------2----0-| 
E|-----------------|------------4-|-0-----------| 


                        |-3--| 
   Q  S S S S E E   Q  +S  S S Q  E 
G|--------6-------|-----------------| 
D|------------6---|--------2-3-4----| 
A|-4----0-------4-|-----------------| 
E|----------------|-2--(2)--------2-| 


   E Q  E E E   Q.   E S S E   Q  E S S E E   Q.   E S S S S   Q  E E E E 
G|------------|--------------|--------------|----------------|------------|| 
D|------------|--------------|--------------|----------------|------------|| 
A|-0--------2-|-4----------2-|-4----4-----2-|-4----------2---|-4--------2-|| 
E|------4-4---|--------4-----|----------4---|--------4-------|------4-4---|| 


 Outro 
   Q.   E S S E   Q  E E E E   Q  E Q  E   E Q  E E E   Q.   Q  E 
G|--------------|------------|-----------|------------|------------| 
D|--------------|------------|------2----|------------|------2-----| 
A|-4----------2-|-4--------2-|-4--4------|-4--------2-|-4----------| 
E|--------4-----|------4-4---|---------4-|------4-4---|---------4--| 


   E Q  E E E   Q.   Q  E   E E. S E E E   Q.   E S S E   Q  E S S E E 
G|------------|-----------|--------------|--------------|--------------| 
D|------------|------2----|------4h6-6-6-|--------------|--------------| 
A|-4--------2-|-4---------|-4------------|-4----------2-|-4----------2-| 
E|------4-4---|---------4-|--------------|--------4-----|------4---4---| 


   Q.   E S S S S   Q  S S S S E E    Q.   E E E   E E S S S S E E   Q.   E E E 
G|----------------|----4-5-6-----4\-|------------|-----------------|------------| 
D|----------------|------------6----|------------|-----------------|------------| 
A|-4----------2---|-4---------------|-4--------2-|-4---2-0-4-------|-4--------2-| 
E|--------4-------|-----------------|--------4---|-------------2-4-|--------4---| 


   S E. E E E E   Q.   E E E   E E. S E E E   E E S S E E S S   E E S S S S E E 
G|--------------|------------|----------4-6-|-----------------|-----------------| 
D|--------------|------------|------4h6-----|-----------------|-----------------| 
A|-4--------2-3-|-4--------2-|-4------------|-4---4-2-4---4-2-|-4---4-2-4-----2-| 
E|---0--2-4-----|--------4---|--------------|-----------------|-------------4---| 


   E E S S E E S S   E E S S S S E E   E E S S E E S S   E E S S S S E E 
G|-----------------|-----------------|-----------------|------------------*| 
D|-----------------|-----------------|-----------------|------------------*| 
A|-4---4-2-4---4-2-|-4---4-2-4-------|-4---4-2-4---4-2-|-4---4-2-4--------*| 
E|-----------------|-------------2-4-|-----------------|-------------2-4--*| 

************************************ 
Duration Legend 

W - whole; H - half; Q - quarter; E - 8th; S - 16th; a - acciaccatura;  
+ - note tied to previous; . - note dotted; 
Duration letters will always appear directly above the note/fret number it represents the 
duration for.  Duration letters with no fret number below them represent rests. 
Uncapitalized letters represent notes that are staccato (1/2 duration).  

|  (n)  -  note tied to previous 
|   \   -  slide out of (to "nowhere") 
| |-3-| -  triplet 
|   h   -  hammer-on 
************************************* 
	  

Full key step upFull key step up
Half key step upHalf key step up
Half key step downHalf key step down
Full key step downFull key step down
Search Paypal
auto scroll beats size up size down change color hide chords drawings
tab show chords e-chords YouTube Clip e-chords hide all tabs e-chords go to top tab