Avatar

Tooth Beak And Claw

Avatar

bass nolevel nolevel

by  HEBEALMEIDA

save to print version add songbook text version e-mail correct tuner
chordsukulelecavacokeyboardtabbassdrumsharmonicaflute Guitar Pro
close

there isn't a video lesson for this song

chords

Tooth Beak And Claw

	  		
Intro 
D|-----------------|-----------------|-----------------|-----------------| 
A|-----------------|-----------------|-----------------|-----------------| 
E|-----------------|-------------2---|-3x--------------|-3---5---3---5---| 
B|-4x--------------|-----------------|-----------------|-----------------| 

D|-----------------|-----------------|-----------------|-----------------| 
A|-----------------|-----------------|-----------------|-----------------| 
E|-----------------|-------------2---|-3x--------------|-----5---3-------| 
B|-4x--------------|-----------------|-----------------|-------------6---| 

D|-----------------|-----------------|-----------------|-----------------| 
A|-----------------|-----------------|-----------------|-----------------| 
E|-----------------|-6-6-5-5-3-3-----|-3-------3-------|-5-5-6-6-3-3-----| 
B|-4-------4-------|-------------6-6-|-----------------|-------------6-6-| 

D|-----------------|-----------------|-----------------|-----------------| 
A|-----------------|-----------------|---------4-------|-----------------| 
E|-----------------|-6-6-5-5-3-3-----|-3---------------|-3-3-3-3-3-3-3-3-| 
B|-4-------4-------|-------------6-6-|-----------------|-----------------| 

(clapping) 
D|-----------------|-----------------| 
A|-----------------|-----------------| 
E|-----------------|-----------------| 
B|-----------------|-----------------| 

Main Riff 
D|-----------------|-----------------|-----------------|-----------------| 
A|-----------------|-----------------|-----------------|-----------------| 
E|-----------------|-------------2-2-|-3-3-3-3-3-3-3-3-|-3-3-3-3-3-3-5-5-| 
B|-4-4-4-4-4-4-4-4-|-4-4-4-4-4-4-----|-----------------|-----------------| 

D|-----------------|-----------------|-----------------|-----------------| 
A|-----------------|-----------------|-----------------|-----------------| 
E|-----------------|-------------2-2-|-3-3-3-3-3-3-5-5-|-3-3-3-3-3-3-5-5-| 
B|-4-4-4-4-4-4-4-4-|-4-4-4-4-4-4-----|-----------------|-----------------| 

D|-----------------|-----------------|-----------------|-----------------| 
A|-----------------|-----------------|-----------------|-----------------| 
E|-----------------|-------------2-2-|-3-3-3-3-3-3-3-3-|-3-3-3-3-3-3-5-5-| 
B|-4-4-4-4-4-4-4-4-|-4-4-4-4-4-4-----|-----------------|-----------------| 

D|-----------------|-----------------|-----------------|-----------------| 
A|-----------------|-----------------|-----------------|-----------------| 
E|-----------------|-------------2-2-|-3-3-3-3-3-3-5-5-|-3-3-3-3-3-3-5-5-| 
B|-4-4-4-4-4-4-4-4-|-4-4-4-4-4-4-----|-----------------|-----------------| 

Verse I 
D|-----------------|-----------------|-----------------|-----------------| 
A|-----------------|-----------------|-----------------|-----------------| 
E|-----------------|-------------2-2-|-3-3-3-3-3-3-3-3-|-3-3-3-3-3-3-5-5-| 
B|-4-4-4-4-4-4-4-4-|-4-4-4-4-4-4-----|-----------------|-----------------| 

D|-----------------|-----------------|-----------------|-----------------| 
A|-----------------|-----------------|-----------------|-----------------| 
E|-----------------|-------------2-2-|-3-3-3-3-3-3-5-5-|-3-3-3-3-3-3-5-5-| 
B|-4-4-4-4-4-4-4-4-|-4-4-4-4-4-4-----|-----------------|-----------------| 

D|-----------------|-----------------|-----------------|-----------------| 
A|-----------------|-----------------|-----------------|-----------------| 
E|-----------------|-------------2-2-|-3-3-3-3-3-3-3-3-|-3-3-3-3-3-3-5-5-| 
B|-4-4-4-4-4-4-4-4-|-4-4-4-4-4-4-----|-----------------|-----------------| 

D|-----------------|-----------------|-----------------|-----------------| 
A|-----------------|-----------------|-----------------|-----------------| 
E|-----------------|-------------2-2-|-3-3-3-3-3-3-5-5-|-3-3-3-3-3-3-5-5-| 
B|-4-4-4-4-4-4-4-4-|-4-4-4-4-4-4-----|-----------------|-----------------| 

Main Riff II 
D|-----------------|-----------------|-----------------|-----------------| 
A|-----------------|-----------------|-----------------|-----------------| 
E|-----------------|-------------2-2-|-3-3-3-3-3-3-3-3-|-3-3-3-3-3-3-5-5-| 
B|-4-4-4-4-4-4-4-4-|-4-4-4-4-4-4-----|-----------------|-----------------| 

D|-----------------|-----------------|-----------------|-----------------| 
A|-----------------|-----------------|-----------------|-----------------| 
E|-----------------|-------------2-2-|-3-3-3-3-3-3-5-5-|-3-3-3-3-3-3-5-5-| 
B|-4-4-4-4-4-4-4-4-|-4-4-4-4-4-4-----|-----------------|-----------------| 

Chorus (drums are in half time) 
D|-----------------|-----------------|-----------------|-----------------| 
A|-----------------|-----------------|-----------------|-----------------| 
E|-3~--------------|---------6-------|-2~--------------|-----------------| 
B|-----------------|-----------------|-----------------|-4~--------------| 

D|-----------------|-----------------|-----------------|-----------------| 
A|-----------------|-----------------|-----------------|-----------------| 
E|-3~--------------|---------6-------|-2~--------------|-5~-----(2)~-----| 
B|-----------------|-----------------|-----------------|-----------------| 

D|-----------------|-----------------|-----------------|-----------------| 
A|-----------------|-----------------|-----------------|-----------------| 
E|-3~--------------|---------6-------|-2~--------------|-----------------| 
B|-----------------|-----------------|-----------------|-4~--------------| 

D|-----------------|-----------------|-----------------|-----------------| 
A|-----------------|-----------------|-----------------|-----------------| 
E|-3~--------------|---------6-------|-2~--------------|-5~-----(2)~-----| 
B|-----------------|-----------------|-----------------|-----------------| 

D|-----------------|-----------------| 
A|-----------------|-----------------| 
E|-3~--------------|-2~--------------| 
B|-----------------|-----------------| 

Verse II 
D|-----------------|-----------------|-----------------|-----------------| 
A|-----------------|-----------------|-----------------|-----------------| 
E|-----------------|-------------2-2-|-3-3-3-3-3-3-3-3-|-3-3-3-3-3-3-5-5-| 
B|-4-4-4-4-4-4-4-4-|-4-4-4-4-4-4-----|-----------------|-----------------| 

D|-----------------|-----------------|-----------------|-----------------| 
A|-----------------|-----------------|-----------------|-----------------| 
E|-----------------|-------------2-2-|-3-3-3-3-3-3-5-5-|-3-3-3-3-3-3-5-5-| 
B|-4-4-4-4-4-4-4-4-|-4-4-4-4-4-4-----|-----------------|-----------------| 

D|-----------------|-----------------|-----------------|-----------------| 
A|-----------------|-----------------|-----------------|-----------------| 
E|-----------------|-------------2-2-|-3-3-3-3-3-3-3-3-|-3-3-3-3-3-3-5-5-| 
B|-4-4-4-4-4-4-4-4-|-4-4-4-4-4-4-----|-----------------|-----------------| 

D|-----------------|-----------------|-----------------|-----------------| 
A|-----------------|-----------------|-----------------|-----------------| 
E|-----------------|-------------2-2-|-3-3-3-3-3-3-5-5-|-3-3-3-3-3-3-5-5-| 
B|-4-4-4-4-4-4-4-4-|-4-4-4-4-4-4-----|-----------------|-----------------| 

Main Riff III 
D|-----------------|-----------------|-----------------|-----------------| 
A|-----------------|-----------------|-----------------|-----------------| 
E|-----------------|-------------2-2-|-3-3-3-3-3-3-3-3-|-3-3-3-3-3-3-5-5-| 
B|-4-4-4-4-4-4-4-4-|-4-4-4-4-4-4-----|-----------------|-----------------| 

D|-----------------|-----------------|-----------------|-----------------| 
A|-----------------|-----------------|-----------------|-----------------| 
E|-----------------|-------------2-2-|-3-3-3-3-3-3-5-5-|-3-3-3-3-3-3-5-5-| 
B|-4-4-4-4-4-4-4-4-|-4-4-4-4-4-4-----|-----------------|-----------------| 

Chorus II 
D|-----------------|-----------------|-----------------|-----------------| 
A|-----------------|-----------------|-----------------|-----------------| 
E|-3~--------------|---------6-------|-2~--------------|-----------------| 
B|-----------------|-----------------|-----------------|-4~--------------| 

D|-----------------|-----------------|-----------------|-----------------| 
A|-----------------|-----------------|-----------------|-----------------| 
E|-3~--------------|---------6-------|-2~--------------|-5~-----(2)~-----| 
B|-----------------|-----------------|-----------------|-----------------| 

D|-----------------|-----------------|-----------------|-----------------| 
A|-----------------|-----------------|-----------------|-----------------| 
E|-3~--------------|---------6-------|-2~--------------|-----------------| 
B|-----------------|-----------------|-----------------|-4~--------------| 

D|-----------------|-----------------|-----------------|-----------------| 
A|-----------------|-----------------|-----------------|-----------------| 
E|-3~--------------|---------6-------|-2~--------------|-5~-----(2)~-----| 
B|-----------------|-----------------|-----------------|-----------------| 

D|-----------------|-----------------| 
A|-----------------|-----------------| 
E|-3~--------------|-2~--------------| 
B|-----------------|-----------------| 

Bridge 
D|-----------------|-----------------|-----------------|-----------------| 
A|-----------------|-----------------|-----------------|-----------------| 
E|-----------------|-----------------|-----------------|-----------------| 
B|-----------------|-----------------|-----------------|-----------------| 

D|-----------------|-----------------|-----------------|-----------------| 
A|-----------------|-----------------|-----------------|-----------------| 
E|-----------------|-----------------|-----------------|-----------------| 
B|-----------------|-----------------|-----------------|-----------------| 

D|-----------------|-----------------|-----------------|-----------------| 
A|-----------------|-----------------|-----------------|-----------------| 
E|-----------------|-------------2---|-3~--------------|-------------5---| 
B|-4~--------------|-----------------|-----------------|-----------------| 

D|-----------------|-----------------|-----------------|-----------------| 
A|-----------------|-----------------|-----------------|-----------------| 
E|-----------------|-----------------|-3~----------2---|-3---5---3-------| 
B|-4~--------------|-------------4---|-----------------|-------------6---| 

D|-----------------|-----------------| 
A|-----------------|-----------------| 
E|-----------------|-----3-3-5-5-6-6-| 
B|-4~------4~------|-6-6-------------| 

(sixteenth notes) 
D|-----------------|-----------------|-----------------|-----------------| 
A|-----------------|-----------------|-----------------|-----------------| 
E|-----------------|-----------------|-33333x----------|----333333333x---| 
B|-44444x----------|----444444444x---|-----------------|-----------------| 

D|-----------------|-----------------|-----------------|-----------------| 
A|-----------------|-----------------|-----------------|-------------5-5-| 
E|-----------------|-----------------|-33333x----------|-3-3-5-5-6-6-----| 
B|-44444x----------|----444444444x---|-----------------|-----------------| 

Guitar Solo 
D|-----------------|-----------------|-----------------|-----------------| 
A|-----------------|-----------------|-----------------|-----------------| 
E|-----------------|-----------------|-3333333333333333|-3333333333333333| 
B|-4444444444444444|-6666666666666666|-----------------|-----------------| 

D|-----------------|-----------------|-----------------|-----------------| 
A|-----------------|-----------------|-----------------|-----------------| 
E|-----------------|-----------------|-3333333333333333|-3333333333333333| 
B|-4444444444444444|-6666666666666666|-----------------|-----------------| 

Main Riff IV 
D|-----------------|-----------------|-----------------|-----------------| 
A|-----------------|-----------------|-----------------|-----------------| 
E|-----------------|-------------2-2-|-3-3-3-3-3-3-3-3-|-3-3-3-3-3-3-5-5-| 
B|-4-4-4-4-4-4-4-4-|-4-4-4-4-4-4-----|-----------------|-----------------| 

D|-----------------|-----------------|-----------------|-----------------| 
A|-----------------|-----------------|-----------------|-----------------| 
E|-----------------|-------------2-2-|-3-3-3-3-3-3-5-5-|-3-3-3-3-3-3-5-5-| 
B|-4-4-4-4-4-4-4-4-|-4-4-4-4-4-4-----|-----------------|-----------------| 

Chorus III 
D|-----------------|-----------------|-----------------|-----------------| 
A|-----------------|-----------------|-----------------|-----------------| 
E|-3~--------------|---------6-------|-2~--------------|-----------------| 
B|-----------------|-----------------|-----------------|-4~----------4---| 

D|-----------------|-----------------|-----------------|-----------------| 
A|-----------------|-----------------|-----------------|-----------------| 
E|-3~--------------|---------6-------|-2~--------------|-5~------2---2---| 
B|-----------------|-----------------|-----------------|-----------------| 

D|-----------------|-----------------|-----------------|-----------------| 
A|-----------------|-----------------|-----------------|-----------------| 
E|-3333333333333333|-3333333366666666|-2222222222222222|-----------------| 
B|-----------------|-----------------|-----------------|-4444444444444444| 

D|-----------------|-----------------|-----------------|-----------------| 
A|-----------------|-----------------|-----------------|-----------------| 
E|-3333333333333333|-3333333366666666|-2222222222222222|-5555555522222222| 
B|-----------------|-----------------|-----------------|-----------------| 

D|-----------------|-----------------| 
A|-----------------|-----------------| 
E|-3~--------------|-2~--------------| 
B|-----------------|-----------------| 

(clapping) 
D|-----------------|-----------------|-----------------| 
A|-----------------|-----------------|-----------------| 
E|-----------------|-------------2---|-3x--------------| 
B|-----------------|-----------------|-----------------| 

************************************ 
| x   Dead note 
| (n) Ghost note 
| ~   Vibrato 
************************************ 
		  

See also:

bass Deep Purple - Smoke On The Water (ver. 3) bass Deep Purple - Ted The Mechanic bass Deep Purple - Fire Ball bass Deep Purple - Black Night bass Deep Purple - Lady Double Dealer bass Deep Purple - Knocking At Your Back Door
e-chords

Other versions:

bass Avatar - Tooth Beak And Claw
auto scroll beats size up size down change color hide chords drawings
tab show chords e-chords YouTube Clip e-chords hide all tabs e-chords go to top tab

share with facebook