Avatar

New Land

Avatar

bass nolevel nolevel

by  TERCMORAES

save to print version add songbook text version e-mail correct tuner
chordsukulelecavacokeyboardtabbassdrumsharmonicaflute Guitar Pro
close

there isn't a video lesson for this song

chords

New Land

	  		
Intro  

D|-----------------|-----------------|-----------------|-----------------| 
A|-----------------|-----------------|-----------------|-----------------| 
E|-----------------|-5~--------------|-2-----5-2-------|-----------------| 
B|-0-----3-2---3---|-----------------|-------------5---|-0~--------------| 

D|-----------------|-----------------|-----------------|-----------------| 
A|-----------------|-----------------|-----------------|-----------------| 
E|-----------------|-5~--------------|-2-----5-2-------|-----------------| 
B|-0-----3-2---3---|-----------------|-------------5---|-0~--------------| 

D|-----------------|-----------------|-----------------|-----------------| 
A|-----------------|-----------------|-----------------|-----------------| 
E|-----------------|-----------------|-----------------|-----------------| 
B|0--00-0---0-000--|-0--00-0---0-000-|-0--00-0---0-000-|-0--00-0---0-000-| 

D|-----------------|-----------------|-----------------|-----------------| 
A|-----------------|-----------------|-----------------|----------2-2-0--| 
E|-----------------|-----------------|-----------------|-----------------| 
B|-0--0--0---0-000-|-0--0--0---0-000-|-0--0--0---0-000-|-0--0--0---------| 

Interlude 
D|-----------------|-----------------|-----------------|-----------------| 
A|-----------------|-----------------|-----------------|-----------------| 
E|-----------------|-----------------|-----------------|-----------------| 
B|-----------------|-----------------|-----------------|-----------------| 

Verse I 
D|-----------------|-----------------|-----------------|-----------------| 
A|-----------------|-----------------|-----------------|-----------------| 
E|-3~--------------|-0~--------------|-----------------|-----------------| 
B|-----------------|-----------------|-0~--------------|-0~--------------| 

D|-----------------|-----------------|-----------------|-----------------| 
A|-----------------|-----------------|-----------------|-----------------| 
E|-3~--------------|-0~--------------|-----------------|-----------------| 
B|-----------------|-----------------|-0~--------------|-0~--------------| 

Riff  
D|-----------------|-----------------|-----------------|-----------------| 
A|-----------------|-----------------|-----------------|-----------------| 
E|-----------------|-5~--------------|-2-----5-2-------|-----------------| 
B|-0-----3-2---3---|-----------------|-------------5---|-0~--------------| 

D|-----------------|-----------------|-----------------|-----------------| 
A|-----------------|-----------------|-----------------|-----------------| 
E|-----------------|-5~--------------|-2-----5-2-------|-----------------| 
B|-0-----3-2---3---|-----------------|-------------5---|-0--0--0---0-000-| 

Verse II 
D|-----------------|-----------------|-----------------|-----------------| 
A|-----------------|-----------------|-----------------|-----------------| 
E|-3~--------------|-0~--------------|-----------------|-----------------| 
B|-----------------|-----------------|-0~--------------|-0~--------------| 

D|-----------------|-----------------|-----------------|-----------------| 
A|-----------------|-----------------|-----------------|-----------------| 
E|-3~--------------|-0~--------------|-----------------|-----------------| 
B|-----------------|-----------------|-0~--------------|-0~--------------| 

Chorus I 
D|-----------------|-----------------|-----------------|-----------------| 
A|-2~--------------|-----------------|-----------------|-----------------| 
E|---------2~------|-5~--------------|-0~------3~------|-5~--------------| 
B|-----------------|-----------------|-----------------|-----------------| 

D|-----------------|-----------------|-----------------|-----------------| 
A|-2~--------------|-----------------|-----------------|-----------------| 
E|---------2~------|-5~--------------|-0~------3~------|-5~--------------| 
B|-----------------|-----------------|-----------------|-----------------| 

"sleep my child and dream of the new land" 
D|-----------------|-----------------| 
A|-----------------|-----------------| 
E|-----------------|-----------------| 
B|-----------------|-----------------| 

Riff 
D|-----------------|-----------------|-----------------|-----------------| 
A|-----------------|-----------------|-----------------|-----------------| 
E|-----------------|-5~--------------|-2-----5-2-------|-----------------| 
B|-0-----3-2---3---|-----------------|-------------5---|-0~--------------| 

D|-----------------|-----------------|-----------------|-----------------| 
A|-----------------|-----------------|-----------------|-----------------| 
E|-----------------|-5~--------------|-2-----5-2-------|-----------------| 
B|-0-----3-2---3---|-----------------|-------------5---|-0--0--0---0-000-| 

Verse III 
D|-----------------|-----------------|-----------------|-----------------| 
A|-----------------|-----------------|-----------------|-----------------| 
E|-3~--------------|-0~--------------|-----------------|-----------------| 
B|-----------------|-----------------|-0~--------------|-0~--------------| 

D|-----------------|-----------------|-----------------|-----------------| 
A|-----------------|-----------------|-----------------|-----------------| 
E|-3~--------------|-0~--------------|-----------------|-----------------| 
B|-----------------|-----------------|-0~--------------|-0~--------------| 

Chorus III 
D|-----------------|-----------------|-----------------|-----------------| 
A|-2~--------------|-----------------|-----------------|-----------------| 
E|---------2~------|-5~--------------|-0~------3~------|-5~--------------| 
B|-----------------|-----------------|-----------------|-----------------| 

D|-----------------|-----------------|-----------------|-----------------| 
A|-2~--------------|-----------------|-----------------|-----------------| 
E|---------2~------|-5~--------------|-0~------3~------|-5~--------------| 
B|-----------------|-----------------|-----------------|-----------------| 

"sleep my child and dream of the new land" 
D|-----------------|-----------------|-----------------|-----------------| 
A|-----------------|-----------------|-----------------|-----------------| 
E|-----------------|-----------------|-----------------|-----------------| 
B|-----------------|-----------------|-----------------|-----------------| 

(Humming starts) 
D|-----------------|-----------------|-----------------|-----------------| 
A|-----------------|-----------------|-----------------|-----------------| 
E|-----------------|-----------------|-----------------|-----------------| 
B|-----------------|-----------------|-----------------|-----------------| 

D|-----------------|-----------------|-----------------|-----------------| 
A|-----------------|-----------------|-----------------|-----------------| 
E|-----------------|-----------------|-----------------|-----------------| 
B|-----------------|-----------------|-----------------|-----------------| 


"you were promised, you will be departed..." 
D|-----------------|-----------------|-----------------|-----------------| 
A|-----------------|-2---2---2-0-----|-----------------|-----------------| 
E|-----------------|-------------2---|-3~------------3-|-3---2-----------| 
B|-0~--------------|-----------------|-----------------|---------5---3---| 

D|-----------------|-----------------|-----------------|-----------------| 
A|-----------------|-7---7---7-7-5---|-2-----2-5-----5-|-2~--------------| 
E|-----------------|-----------------|-----------------|-----------------| 
B|-5~------------5-|-----------------|-----------------|-----------------| 

(Choir enters) 
D|-----------------|-----------------|-----------------|-----------------| 
A|-----------------|-2---2---2-0-----|-----------------|-----------------| 
E|-----------------|-------------2---|-3~------------3-|-3---2-----------| 
B|-0~--------------|-----------------|-----------------|---------5---3---| 

D|-----------------|-----------------|-----------------|-----------------| 
A|-----------------|-7---7---7-7-5---|-2-----2-5-----5-|-2~--------------| 
E|-----------------|-----------------|-----------------|-----------------| 
B|-5~------------5-|-----------------|-----------------|-----------------| 

D|-----------------|-----------------|-----------------|-----------------| 
A|-----------------|-2---2---2-0-----|-----------------|-----------------| 
E|-----------------|-------------2---|-3~------------3-|-3---2-----------| 
B|-0~--------------|-----------------|-----------------|---------5---3---| 

D|-----------------|-----------------|-----------------|-----------------| 
A|-----------------|-7---7---7-7-5---|-2-----2-5-----5-|-2x--------------| 
E|-----------------|-----------------|-----------------|-----------------| 
B|-5~------------5-|-----------------|-----------------|-----------------| 

Interlude  
D|-----------------|-----------------|-----------------| 
A|-----------------|-----------------|-----------------| 
E|-----------------|-----------------|-----------------| 
B|-----------------|-0~--------------|-----------------| 

D|-----------------|-----------------|-----------------|-----------------| 
A|-----------------|-----------------|-----------------|----------2-2-0--| 
E|-----------------|-----------------|-----------------|-----------------| 
B|-0--0--0---0-000-|-0--0--0---0-000-|-0--0--0---0-000-|-0--0--0---------| 

Final Chorus 
D|-----------------|-----------------|-----------------|-----------------| 
A|-2-2-2-2---------|-----------------|-----------------|-----------------| 
E|---------2-2-2-2-|-5-5-5-5-5-5-5-5-|-0-0-0-0-3-3-3-3-|-5-5-5-5-5-5-5-5-| 
B|-----------------|-----------------|-----------------|-----------------| 

D|-----------------|-----------------|-----------------|-----------------| 
A|-2-2-2-2---------|-----------------|-----------------|-----------------| 
E|---------2-2-2-2-|-5-5-5-5-5-5-5-5-|-0-0-0-0-3-3-3-3-|-5-5-5-5-5-5-5-5-| 
B|-----------------|-----------------|-----------------|-----------------| 

D|-----------------|-----------------|-----------------|-----------------| 
A|-2-2-2-2---------|-----------------|-----------------|-----------------| 
E|---------2-2-2-2-|-5-5-5-5-5-5-5-5-|-0-0-0-0-3-3-3-3-|-5-5-5-5-5-5-5-5-| 
B|-----------------|-----------------|-----------------|-----------------| 

D|-----------------|-----------------|-----------------|-----------------| 
A|-2-2-2-2---------|-----------------|-----------------|-----------------| 
E|---------2-2-2-2-|-5-5-5-5-5-5-5-5-|-0-0-0-0-3-3-3-3-|-5-5-5-5-5-5-5-5-| 
B|-----------------|-----------------|-----------------|-----------------| 

Outro 
D|-----------------|-----------------|-----------------|-----------------| 
A|-----------------|-----------------|-----------------|-----------------| 
E|-2-----5-2-------|-----------------|-----------------|-----------------| 
B|-------------5---|-3-----5-3---2---|-0~--------------|-----------------| 

Happy playing! 

************************************ 
| x   Dead note 
| ~   Vibrato 
************************************ 
		  

See also:

bass Deep Purple - Smoke On The Water (ver. 3) bass Deep Purple - Ted The Mechanic bass Deep Purple - Fire Ball bass Deep Purple - Black Night bass Deep Purple - Lady Double Dealer bass Deep Purple - Knocking At Your Back Door
e-chords

Other versions:

bass Avatar - New Land
auto scroll beats size up size down change color hide chords drawings
tab show chords e-chords YouTube Clip e-chords hide all tabs e-chords go to top tab

share with facebook