Asaf Avidan

One Day Reckoning Song

Asaf Avidan

bass

by  SABRJOAO

save to print version add songbook text version e-mail correct tuner
chordsukulelecavacokeyboardtabbassdrumsharmonicaflute Guitar Pro
close

there isn't a video lesson for this song

chords

One Day Reckoning Song

	  		
Bass starts at 0:19 
G ---------------------------------------| 
D ---------------------------------------| 
A ---6--------4-6--------6----4-6----6---| 
E ---------------------------------------| 

0:32 
G ------------------------------------| 
D -----------------4----3-------------| 
A ---4--6--6----4----------4---6------| 
E --------------------------------7---| 

0:41 
G ------------------------------------| 
D -----------------4----3-------------| 
A ------6--6----4----------4---6------|     x3 
E ---6----------------------------7---| 

No bass from 1:04 - 1:21 

1:22 
G ---------------------------------------------------------| 
D ----------------4---4--4--3------------------------------| 
A ---6---6--6--4---------------4---4--4--6-----------------|     x3 
E -------------------------------------------7---7--7--6---| 

No bass from 1:46 - 2:01 

2:02 
G ---------------------------------------------------------| 
D ----------------4---4--4--3------------------------------| 
A ---6---6--6--4---------------4---4--4--6-----------------|     x7 
E -------------------------------------------7---7--7--6---| 

Bass ends at 3:00 
		  

See also:

bass Asaf Avidan - One Day Reckoning Song
e-chords

Other versions:

bass Asaf Avidan - One Day Reckoning Song
auto scroll beats size up size down change color hide chords drawings
tab show chords e-chords YouTube Clip e-chords hide all tabs e-chords go to top tab

share