Armandinho & Banda

home > Armandinho & Banda

Reggae das tramanda Bass Tab

Armandinho & Banda

Difficulty: nolevelnolevel

tuner correct add songbook print version text version save to e-mail
chordsukulelecavacokeyboardtabbassdrumsharmonicsflute Guitar Pro
chords

Reggae das tramanda

Year: 2006 - Album: Armandinho ao Vivo

  		0:09
g--------------------------------------------------
d-------------------------------------------------4
a--7/14----------------------7----------2--4--6h---
e------------------0---7--9h-----------------------


g-------------------------------------------|
d-------------------------------------------| 4x
a----0-----7----------9---------------------|
e------7-8h--7---9--11----------------------|

g-----------------------------------------------|
d-------------------------------------------22--|2x
a-0-0-0-22----0-0-0-22 -0-0-0-22-------2424-----|
e-----------------------------------------0-----|

g------------------------------------------------
d--------------------------------------7---------
a--444---------444-----------0----7--9-----------
e---------444---------444------------------------

g-------------------------------------------------
d-------2---------------------------------------4-
a-----4-----------------------7--------2--4--6h---
e--00---------------0---7--9h---------------------

g-----------------------------------------------|
d-----------------------------------------------| 4x
a----0-----7----------9------------------------|
e------7-8h--7---9--11-----------------------|

g----------------------------------------------|
d-------------------------------------------22-|2x
a-0-0-0-22----0-0-0-22 -0-0-0-22-------2424----|
e----------------------------------0-----------|

g------------------------------------------------
d--------------------------------------7---------
a--444---------444-----------0----7--9-----------
e---------444---------444------------------------

g----------------------| 
d-------2--------------| repete esta parte ate o 
a-----4----------------| final da musica
e--00------------------|

Demais duvidas sobre essa tab so manda um mail. obrigado

_______________________________________________________
Contribuição: Sigmar Pereira([email protected])
	  

Search Paypal
auto scroll beats size up size down change color hide chords drawings
tab show chords e-chords YouTube Clip e-chords hide all tabs e-chords go to top tab