Armandinho & Banda

home > Armandinho & Banda

Folha de bananeira Bass Tab

Armandinho & Banda

Difficulty: nolevelnolevel

by %2Afox%2A

tuner correct add songbook print version text version save to e-mail
chordsukulelecavacokeyboardtabbassdrumsharmonicsflute Guitar Pro
chords

Folha de bananeira

Year: 2006 - Album: Armandinho ao Vivo

  		  
   
o baixo entra (00:30) após o solo 
G-----------------------------------------------| 
D-----------------------------------------------|    Refrão (2x) 
A-------------1h3--1h3--------------------------| 
E---1---1-2-3-----------3---1-------------------| 
 
G-----------------------------------------------| 
D-----------------------------------------------|    2x 
A----1-1---1-2-333-----1-1-----1-2-333----------| 
E--------1----------1-------1-----------1-------| 
 
G-----------------------------------------------| 
D-----------------------------------------------|     Refrão (2x) 
A-------------1h3--1h3--------------------------| 
E---1---1-2-3-----------3---1-------------------| 
 
G-----------------------------------------------| 
D-----------------------------------------------| 
A----1-1---1-2-333-----1-1-----1-2-333----------|    2x 
E--------1----------1-------1-----------1-------| 
 
G-----------------------------------------------| 
D-----------------------------------------------|     Refrão (2x) 
A-------------1h3--1h3--------------------------| 
E---1---1-2-3-----------3---1-------------------| 
 
no final do vocal tem esse riff (bem rapidinho)                                                                          
    (após  a parte "ohn cabrobró") 
G-----------------------------------------------| 
D--1h3------------------------------------------|    1x 
A------1h3--------------------------------------| 
E----------1------------------------------------| 
 
G-----------------------------------------------| 
D-----------------------------------------------| 
A----1-1---1-2-333-----1-1-----1-2-333----------|    2x 
E--------1----------1-------1-----------1-------| 
 
G-----------------------------------------------| 
D-----------------------------------------------| 
A-------------1h3--1h3--------------------------|    Refrão (2x) 
E---1---1-2-3-----------3---1-------------------| 
 
solo: 
 
G-----------------------------------------------|    |     
D---5h7--5--3--55--3---5h7--5--3----------------|    | 
A---------------------------------5--3----------|    | 
E-----------------------------------------------|    | 
                                                     |   1x 
G-----------------------------------------------|    | 
D---5h7--5--3--55--3---5h7--5--3--5--3----------|    | 
A-----------------------------------------------|    | 
E-----------------------------------------------|    | 
 
 
G-----------------------------------------------| 
D-----------------------------------------------|      repete até 
A-------------1h3--1h3--------------------------|  o final da músika 
E---1---1-2-3-----------3---1-------------------| 
 
 
by: celso (camanducaia-mg) 
	  

Search Paypal
auto scroll beats size up size down change color hide chords drawings
tab show chords e-chords YouTube Clip e-chords hide all tabs e-chords go to top tab