Aretha Franklin

home > Aretha Franklin

Save Me Bass Tab

Aretha Franklin

Difficulty: nolevelnolevel

by PAULLET3

tuner correct add songbook print version text version save to e-mail
chordsukulelecavacokeyboardtabbassdrumsharmonicsflute Guitar Pro
chords

Save Me

Key:  E More
Save Me Key BB
Save Me Key CC
Save Me Key C#C#
Save Me Key DD(one step down)
Save Me Key D#D#(half step down)
Save Me Key EE(original key)
Save Me Key FF(half step up)
Save Me Key F#F#(one step up)
Save Me Key GG
Save Me Key G#G#
Save Me Key AA
Save Me Key A#A#
  		  Intro                          Chorus 
  Q=120 
  4/4 
   Gtr I 
   Q.   E Q  E E   Q.   E Q  E E    E Q  E Q  E E   E Q  E +S  E S E E 
G|---------------|---------------||---------------|---------------------| 
D|---------------|---------------||---------------|---------------------| 
A|-7------5--4---|-7------5--4---||---7----5--4---|---7--5-(5)-5-5-4----| 
E|------7------7-|------7------7-||-0----7------7-|-0----------------7--| 


   E Q  Q  Q  E   E Q  E +S  E S E E   E Q  Q  Q  E   E Q  E +S  E S E E 
G|--------------|--------------------|--------------|---------------------| 
D|--------------|--------------------|--------------|---------------------| 
A|---7--5--4----|---7--5-(5)-5-5-4---|---7--5--4----|---7--5-(5)-5-5-4----| 
E|-0----------7-|-0----------------7-|-0----------7-|-0----------------7--| 


                                       1st - 4th Verses & Choruses 
   E Q  Q  Q  E   E Q  E +S  E S E E     E Q  Q  Q  E   E Q  E +S  E S E E 
G|--------------|--------------------||---------------|---------------------| 
D|--------------|--------------------||o--------------|---------------------| 
A|---7--5--4----|---7--5-(5)-5-5-4---||o---7--5--4----|---7--5-(5)-5-5-4----| 
E|-0----------7-|-0----------------7-||--0----------7-|-0----------------7--| 


   E Q  Q  Q  E   E Q  E +S  E S E E 12x E Q  Q  Q  E   E Q  E +S  E S E E 
G|--------------|---------------------||--------------|---------------------| 
D|--------------|--------------------o||--------------|---------------------| 
A|---7--5--4----|---7--5-(5)-5-5-4---o||---7--5--4----|---7--5-(5)-5-5-4----| 
E|-0----------7-|-0----------------7--||-0----------7-|-0----------------7--| 


                   Outro 
   E Q  Q  E E E     E Q  Q  Q  E   E Q  E +S  E S E E  4x 
G|---------------||---------------|---------------------|| 
D|---------------||o--------------|--------------------o|| 
A|---7--5--5-4---||o---7--5--4----|---7--5-(5)-5-5-4---o|| 
E|-0-----------7-||--0----------7-|-0----------------7--|| 
 
	  

Full key step upFull key step up
Half key step upHalf key step up
Half key step downHalf key step down
Full key step downFull key step down
Search Paypal
auto scroll beats size up size down change color hide chords drawings
tab show chords e-chords YouTube Clip e-chords hide all tabs e-chords go to top tab