Arctic Monkeys

home > Arctic Monkeys

Fluorescent Adolescent Bass Tab

Arctic Monkeys

Difficulty: BeginnerBeginner

by europeu

tuner correct add songbook print version text version save to e-mail
chordsukulelecavacokeyboardtabbassdrumsharmonicsflute Guitar Pro
chords

Fluorescent Adolescent

Year: 2007 - Album: Favourite Worst Nightmare

  		Intro 

G|---------------------| 
D|-----------444-------| 
A|-777--444-------222--| 
E|---------------------| 

Intro Part 2 

G|--------------6-----6---4--------6-----4--4--------| 
D|--2------------------------4-----------------------| 
A|-----------2-4----4---2-------------2----2---------| 
E|-0---0-2-4----------------2---2-2-----------3\4-2--| 

Verse 
Used to get it in your fishnets...		x2 
G|---------------------------------------------------------------------------:| 
D|----------------9-11-11-11-11---11---9----------------11-9-9-9-9----9------:| 
A|-7-7-7-7-7-9\11-------------------------9-9-9-9-9-9-9------------11---11-9-:| 
E|------------------------------9----7---------------------------------------:| 

Chorus 
The best you ever had... 
G|-----------------------------------------------------------| 
D|-----------------------------------------------------------| 
A|-----22---------22-22-----------------22h4-2-22h4-2--------| 
E|-22------22-22---------22h4-2-22h4-2-----------------2---5-| 

2nd Verse 
Flickin through a little book of sex tips... 
G|---------------------------------------------------------------------------| 
D|----------------9-11-11-11-11---11---9---------------11-9-9-9-9----9-------| 
A|-7-7-7-7-7-9\11-------------------------9-9-9-9-9-9-9------------11---11-9-| 
E|------------------------------9----7---------------------------------------| 

G|-----------------------------------------------| 
D|----------------9-11-11-11-11--11-11-9-9-------| 
A|-7-7-7-7-7-9\11--------------------------9-9-9-| 
E|-----------------------------------------------| 

Chorus (Different than 1st) 
		x2 
G|---------------------------:|-------------------------| 
D|---------------------------:|-------------------------| 
A|--------------22h4-2-2h4---:|----22-------------------| 
E|-22h4-2-2h4----------------:|-22----22222222-77777777-| 

G|-------------------------------------------------------------| 
D|-------------------------------------------------------------| 
A|---------6\7-6-2-------------------------6\7-6-2-------------| 
E|-4-4---4-----------9-9---9-9-97---2-2--2----------4-4-4--2-2-| 

	  X3		3rd Time Ends With This 
G|------------------:|------------------------------| 
D|------------------:|------------------------------| 
A|-777-----99--9----:|------------------------------| 
E|-----999------777-:|-77777-11-11-11-11-11h12-11/9-| 

Ending 
		    x2 
G|------------------------------------------------------------------:| 
D|------------------------------------------------------------------:| 
A|---------------2-4-4-4-4-2-2--------------------4-2-2-2-2---2-----:| 
E|-0-0-0-0-0-2-4---------------4-2--2-2-2-2-2-2-2-----------4---4-2-:| 


  		   x2 
G|--------------6-----6---4--------6-----4--4--------:| 
D|--2------------------------4-----------------------:| 
A|-----------2-4----4---2-------------2----2---------:| 
E|-0---0-2-4----------------2---2-2-----------3\4-2--:| End the second time with an open E 


| /  slide up 
| \  slide down 
| h  hammer-on 
| p  pull-off 
| ~  vibrato 
| +  harmonic 
| x  Mute note 

	  

Full key step upFull key step up
Half key step upHalf key step up
Half key step downHalf key step down
Full key step downFull key step down
Search Paypal
auto scroll beats size up size down change color hide chords drawings
tab show chords e-chords YouTube Clip e-chords hide all tabs e-chords go to top tab