Arctic Monkeys

home > Arctic Monkeys

Do I Wanna Know? Bass Tab

Arctic Monkeys

Difficulty: BeginnerBeginner

by Acelot

tuner correct add songbook print version text version save to e-mail
chordsukulelecavacokeyboardtabbassdrumsharmonicsflute Guitar Pro
chords

Do I Wanna Know?

(Alex Turner)

	  Parte 1  

G|---------------------------------------|  
D|---------------------------------------|  
A|---------------------------------------|  
E|-3---11---8---10\3---3------8----10\3-|  

Part 2:  

G|--------------------------------------------|  
D|-------------------------------0------------|  
A|-10\-6---3-5-6-5-3--1--3---1-3----------1---|  
E|---------------------------------3--1h3---3-|  

Chorus:  

G|---------------------------------------------------------|  
D|-----------------1h3-1--0----------0---------------------|  
A|-----1---------1-----------3---1-3---3---1-3--3h5-3h5----|  
E|-1h3---3---1-3-----------------------------------------3-|  

G|---------------------------------------------------------|  
D|-----------------1h3-1--0----------0---------------------|  
A|-----1---------1-----------3-1-1-3---3---1-3--3h5-3h5----|  
E|-1h3---3---1-3-----------------------------------------3-|  

End Chorus:  

G|-----------------------------------------------|  
D|--------3/---------------------------------0---|  
A|-----1-----10\6---3-5-6-5-3--1-3------1-3------|  
E|-1-3-----------------------------------------3-|  

	  

there isn't a video lesson for this song

request
Search
auto scroll beats size up size down change color hide chords drawings
tab show chords e-chords YouTube Clip e-chords hide all tabs e-chords go to top tab