Antiseen

Antiseen

Antiseen

bass

by  ALEFFEDERICO

save to print version add songbook text version e-mail correct tuner
chordsukulelecavacokeyboardtabbassdrumsharmonicaflute Guitar Pro
close

there isn't a video lesson for this song

chords

Antiseen

	  		
Whole Song 
G|---------------------------------|---------------------------------| 
D|---------------------------------|---------------------------------| 
A|---------------------------------|---------------------------------| 
E|-3-3-3-3-3-3-3-3---7---5---7---5-|-3-3-3-3-3-3-3-3---7---5---7---5-| 

G|---------------------------------|---------------------------------| 
D|---------------------------------|---------------------------------| 
A|---------------------------------|---------------------------------| 
E|-3-3-3-3-3-3-3-3---7---5---7---5-|-3-3-3-3-3-3-3-3---7---5---7---5-| 

G|---------------------------------|---------------------------------| 
D|---------------------------------|---------------------------------| 
A|---------------------------------|---------------------------------| 
E|-3-3-3-3-3-3-3-3---7---5---7---5-|-3-3-3-3-3-3-3-3---7---5---7---5-| 

G|---------------------------------|---------------------------------| 
D|---------------------------------|---------------------------------| 
A|---------------------------------|---------------------------------| 
E|-3-3-3-3-3-3-3-3---7---5---7---5-|-3-3-3-3-3-3-3-3---7-------------| 
		  

See also:

bass Deep Purple - Burn Ver.(2) bass Deep Purple - Speed King bass Deep Purple - Into The Fire bass Deep Purple - Black Night bass Deep Purple - Lady Double Dealer bass Deep Purple - Smoke On The Water
e-chords

Other versions:

bass Antiseen - Antiseen
auto scroll beats size up size down change color hide chords drawings
tab show chords e-chords YouTube Clip e-chords hide all tabs e-chords go to top tab

share