Anthrax

home > Anthrax

Skeletons In The Closet Bass Tab

Anthrax

Difficulty: nolevelnolevel

tuner correct add songbook print version text version save to e-mail
chordsukulelecavacokeyboardtabbassdrumsharmonicsflute Guitar Pro
chords

Skeletons In The Closet

  		



G||--------------------------|--------------------------|
D||--------------------------|--------------------------|
A||--------------------------|--------------------------|
E||--2--2--2--2--3--3--3--3--|--1--1--1--1--4--4--4--4--|


                                                      
--------------------------|--------------------------|
--------------------------|--------------------------|
--------------------------|--------------------------|
--2--2--2--2--3--3--3--3--|--1--1--1--1--4--4--4--4--|


                                                      
--------------------------|--------------------------|
--------------------------|--------------------------|
--------------------------|--------------------------|
--2--2--2--2--3--3--3--3--|--1--1--1--1--4--4--4--4--|


                                                                         
--------------------------|--------------------------|------------------|
--------------------------|--------------------------|------------------|
--------------------------|--------------------------|------------------|
--2--2--2--2--3--3--3--3--|--1--1--1--1--4--4--4--4--|------------------|


                                                         
------------------|------------------|------------------|
------------------|------------------|------------------|
------------------|------------------|------------------|
------------------|------------------|------------------|


                                                              
------------------------------|------------------------------|
------------------------------|------------------------------|
------------------------------|------------------------------|
--0-0-0--0-0-0--0-0-0--0-0-0--|--0-0-0--0-0-0--0-0-0--0-0-0--|


                                                              
------------------------------|------------------------------|
------------------------------|------------------------------|
------------------------------|------------------------------|
--0-0-0--0-0-0--0-0-0--0-0-0--|--0-0-0--0-0-0--0-0-0--0-0-0--|


                                                                           
------------------------|------------------------|------------------------|
------------------------|------------------------|------------------------|
------------------------|---------------------3--|------------------------|
--3----3----3--2--0--2--|--3----3----3--1--0-----|--3----3----3--2--0--2--|


                                                        
------------------------|------------------------------|
------------------------|------------------------------|
---------------------3--|------------------------------|
--3----3----3--1--0-----|--0-0-0--0-0-0--0-0-0--0-0-0--|


                                                              
------------------------------|------------------------------|
------------------------------|------------------------------|
------------------------------|------------------------------|
--0-0-0--0-0-0--0-0-0--0-0-0--|--0-0-0--0-0-0--0-0-0--0-0-0--|


                                                        
------------------------------|------------------------|
------------------------------|------------------------|
------------------------------|------------------------|
--0-0-0--0-0-0--0-0-0--0-0-0--|--3----3----3--2--0--2--|


                                                                           
------------------------|------------------------|------------------------|
------------------------|------------------------|------------------------|
---------------------3--|------------------------|---------------------3--|
--3----3----3--1--0-----|--3----3----3--2--0--2--|--3----3----3--1--0-----|


                                                              
------------------------------|------------------------------|
------------------------------|------------------------------|
------------------------------|------------------------------|
--0-0-0--0-0-0--0-0-0--0-0-0--|--0-0-0--0-0-0--0-0-0--0-0-0--|


                                                              
------------------------------|------------------------------|
------------------------------|------------------------------|
------7------7------7------7--|------7------7------7------7--|
--0-0-0--0-0-0--0-0-0--0-0-0--|--0-0-0--0-0-0--0-0-0--0-0-0--|


                                                                           
------------------------|------------------------|------------------------|
------------------------|------------------------|------------------------|
------------------------|---------------------3--|------------------------|
--3----3----3--2--0--2--|--3----3----3--1--0-----|--3----3----3--2--0--2--|


                                                        
------------------------|------------------------------|
------------------------|------------------------------|
---------------------3--|------------------------------|
--3----3----3--1--0-----|--0-0-0--0-0-0--0-0-0--0-0-0--|


                                                              
------------------------------|------------------------------|
------------------------------|---------5-5-----------5-5----|
------------------------------|--7-7-7------7--7-7-7------7--|
--0-0-0--0-0-0--0-0-0--0-0-0--|------------------------------|


                                                        
------------------------------|------------------------|
---------5-5-----------5-5----|------------------------|
--7-7-7------7--7-7-7------7--|------------------------|
------------------------------|--3----3----3--2--0--2--|


                                                                           
------------------------|------------------------|------------------------|
------------------------|------------------------|------------------------|
---------------------3--|------------------------|---------------------3--|
--3----3----3--1--0-----|--3----3----3--2--0--2--|--3----3----3--1--0-----|


                                                              
------------------------------|------------------------------|
------------------------------|------------------------------|
------------------------------|------------------------------|
--0-0-0--0-0-0--0-0-0--0-0-0--|--0-0-0--0-0-0--0-0-0--0-0-0--|


                                                              
------------------------------|------------------------------|
------------------------------|------------------------------|
------------------------------|------------------------------|
--0-0-0--0-0-0--0-0-0--0-0-0--|--0-0-0--0-0-0--0-0-0--0-0-0--|


                                                                           
------------------------|------------------------|------------------------|
------------------------|------------------------|------------------------|
------------------------|---------------------3--|------------------------|
--3----3----3--2--0--2--|--3----3----3--1--0-----|--3----3----3--2--0--2--|


                                                        
------------------------|------------------------------|
------------------------|------------------------------|
---------------------3--|------------------------------|
--3----3----3--1--0-----|--0-0-0--0-0-0--0-0-0--0-0-0--|


                                                           
------------------------------|----------------------5----|
------------------------------|-----------5--7-7--8-------|
------------------------------|--7-7---8---------------7--|
--0-0-0--0-0-0--0-0-0--0-0-0--|---------------------------|


                                                        
------------------------------|------------------------|
---------5-5-----------5-5----|------------------------|
--7-7-7------7--7-7-7------7--|------------------------|
------------------------------|--3----3----3--2--0--2--|


                                                                           
------------------------|------------------------|------------------------|
------------------------|------------------------|------------------------|
---------------------3--|------------------------|---------------------3--|
--3----3----3--1--0-----|--3----3----3--2--0--2--|--3----3----3--1--0-----|


                                                                     
----------------------|----------------------|----------------------|
----------------------|----------------------|----------------------|
------------2----1----|----------------------|------------2----1----|
--0----2--------------|--0--2------0--2------|--0----2--------------|


                                                                     
----------------------|----------------------|----------------------|
----------------------|----------------------|----------------------|
----------------------|------------2----1----|----------------------|
--0--2------0--2------|--0----2--------------|--0--2------0--2------|


                                                                           
----------------------|------------------------|--------------------------|
----------------------|------------------------|--------------------------|
------------2----1----|------------------1--2--|--------------------1--2--|
--0----2--------------|--0--2------0--2--------|--3--0--0--0--0--0--------|


                                                      
--------------------------|--------------------------|
--------------------------|--------------------------|
-----0--0--0--0--0--1--2--|--------1--2--------1--2--|
--3-----------------------|--3--0--------3--0--------|


                                                      
--------------------------|--------------------------|
--------------------------|--------------------------|
--1--1--1--1--1--1--1--2--|--------------------1--2--|
--------------------------|--3--0--0--0--0--0--------|


                                                      
--------------------------|--------------------------|
--------------------------|--------------------------|
-----0--0--0--0--0--1--2--|--------1--2--------1--2--|
--3-----------------------|--3--0--------3--0--------|


                                                      
--------------------------|--------------------------|
--------------------------|--------------------------|
--1--1--1--1--1--1--1--2--|--------------------1--2--|
--------------------------|--3--0--0--0--0--0--------|


                                                      
--------------------------|--------------------------|
--------------------------|--------------------------|
-----0--0--0--0--0--1--2--|--------1--2--------1--2--|
--3-----------------------|--3--0--------3--0--------|


                                                      
--------------------------|--------------------------|
--------------------------|--------------------------|
--1--1--1--1--1--1--1--2--|--------------------1--2--|
--------------------------|--3--0--0--0--0--0--------|


                                                                             
--------------------------|--------------------------|----------------------|
--------------------------|--------------------------|----------------------|
-----0--0--0--0--0--1--2--|--------1--2--------1--2--|--1--1--1--1----------|
--3-----------------------|--3--0--------3--0--------|----------------------|


                                                         
------------------|------------------|------------------|
------------------|------------------|------------------|
------------------|------------------|------------------|
------------------|------------------|------------------|


                                                        
------------------------|------------------------------|
------------------------|------------------------------|
------------------------|------------------------------|
----------0-0-0--0-0-0--|--0-0-0--0-0-0--0-0-0--0-0-0--|


                                                          
------------------------------|--------------------------|
------------------------------|--------------------------|
------------------------------|--------------------------|
--0-0-0--0-0-0--0-0-0--0-0-0--|--0-0-0--0-0-0--3----3----|


                                                                           
------------------------|------------------------|------------------------|
------------------------|------------------------|------------------------|
------------------------|-----------3------------|------------------------|
--3--2--0--2--3----3----|--3--1--0-----3----3----|--3--2--0--2--3----3----|


                                                            
----------------------------|------------------------------|
----------------------------|------------------------------|
-----------3----------------|------------------------------|
--3--1--0-----0-0-0--0-0-0--|--0-0-0--0-0-0--0-0-0--0-0-0--|


                                                              
------------------------------|------------------------------|
------------------------------|------------------------------|
------------------------------|------------------------------|
--0-0-0--0-0-0--0-0-0--0-0-0--|--0-0-0--0-0-0--0-0-0--0-0-0--|


                                                                             
--------------------------|------------------------|------------------------|
--------------------------|------------------------|------------------------|
--------------------------|------------------------|-----------3------------|
--0-0-0--0-0-0--3----3----|--3--2--0--2--3----3----|--3--1--0-----3----3----|


                                                      
------------------------|----------------------------|
------------------------|----------------------------|
------------------------|-----------3----------------|
--3--2--0--2--3----3----|--3--1--0-----0-0-0--0-0-0--|


                                                                
------------------------------|--------------------------------|
------------------------------|------------------9-9-9---9-9-9-|
------------------------------|----------------7-------7-------|
--0-0-0--0-0-0--0-0-0--0-0-0--|--0-0-0--0-0-0------------------|


                                                                
----------------------------------|----------------------------|
----9-9-9---9-9-9---5-7-9---5-7-9-|----5-7-9---5-7-9-----------|
--7-------7-------7-------7-------|--7-------7-----------------|
----------------------------------|------------------3----3----|


                                                                           
------------------------|------------------------|------------------------|
------------------------|------------------------|------------------------|
------------------------|-----------3------------|------------------------|
--3--2--0--2--3----3----|--3--1--0-----3----3----|--3--2--0--2--3----3----|


                                                            
----------------------------|------------------------------|
----------------------------|------------------------------|
-----------3----------------|------------------------------|
--3--1--0-----0-0-0--0-0-0--|--0-0-0--0-0-0--0-0-0--0-0-0--|


                                                                    
--------------------------------|----------------------------------|
--------------------------------|----------------------------------|
--------------------------------|----------------------------------|
--0-0-0--0-0-0--0-0-0-3-0-0-0-5-|--0-0-0-6-0-0-0-5-0-0-0-3-0-0-0-5-|


                                                                               
----------------------------|------------------------|------------------------|
----------------------------|------------------------|------------------------|
----------------------------|------------------------|-----------3------------|
--0-0-0-6-0-0-0-3-3----3----|--3--2--0--2--3----3----|--3--1--0-----3----3----|


                                                      
------------------------|----------------------------|
------------------------|----------------------------|
------------------------|-----------3----------------|
--3--2--0--2--3----3----|--3--1--0-----0-0-0--0-0-0--|


                                                                
------------------------------|--------------------------------|
------------------------------|----------------5---5---5---5---|
------------------------------|------------------7---7---7---7-|
--0-0-0--0-0-0--0-0-0--0-0-0--|--0-0-0--0-0-0------------------|


                                                              
--4-2-4-2-4-2-4-2-----------------|--------------------------|
------------------2-2-2-2-2-2-2-2-|--2-2-2-2-2--2------------|
----------------------------------|--------------------------|
----------------------------------|----------------3----3----|


                                                                           
------------------------|------------------------|------------------------|
------------------------|------------------------|------------------------|
------------------------|-----------3------------|------------------------|
--3--2--0--2--3----3----|--3--1--0-----3----3----|--3--2--0--2--3----3----|


                                                                       
------------------------|----------------------|----------------------|
------------------------|----------------------|----------------------|
-----------3------------|--2----1--------------|----------------------|
--3--1--0-----0----2----|------------0--2------|--0--2------0----2----|


                                                                     
----------------------|----------------------|----------------------|
----------------------|----------------------|----------------------|
--2----1--------------|----------------------|--2----1--------------|
------------0--2------|--0--2------0----2----|------------0--2------|


                                                                         
----------------------|----------------------|--------------------------|
----------------------|----------------------|--------------------------|
----------------------|--2----1--------------|--------1--2--------------|
--0--2------0----2----|------------0--2------|--0--2--------3--0--0--0--|


                                                      
--------------------------|--------------------------|
--------------------------|--------------------------|
--------1--2-----0--0--0--|--0--0--1--2--------1--2--|
--0--0--------3-----------|--------------3--0--------|


                                                      
--------------------------|--------------------------|
--------------------------|--------------------------|
--------1--2--1--1--1--1--|--1--1--1--2--------------|
--3--0--------------------|--------------3--0--0--0--|


                                                      
--------------------------|--------------------------|
--------------------------|--------------------------|
--------1--2-----0--0--0--|--0--0--1--2--------1--2--|
--0--0--------3-----------|--------------3--0--------|


                                                      
--------------------------|--------------------------|
--------------------------|--------------------------|
--------1--2--1--1--1--1--|--1--1--1--2--------------|
--3--0--------------------|--------------3--0--0--0--|


                                                      
--------------------------|--------------------------|
--------------------------|--------------------------|
--------1--2-----0--0--0--|--0--0--1--2--------1--2--|
--0--0--------3-----------|--------------3--0--------|


                                                      
--------------------------|--------------------------|
--------------------------|--------------------------|
--------1--2--1--1--1--1--|--1--1--1--2--------------|
--3--0--------------------|--------------3--0--0--0--|


                                                      
--------------------------|--------------------------|
--------------------------|--------------------------|
--------1--2-----0--0--0--|--0--0--1--2--------1--2--|
--0--0--------3-----------|--------------3--0--------|


                                                                                
--------------------------|-------7-----------------|--------------------------|
--------------------------|--6-------6-----5--6-----|--8-----5-----------------|
--------1--2--1--1--1--1--|-------------7--------7--|-----7--------7-----4-----|
--3--0--------------------|-------------------------|-----------6-----3-----0--|


                                                      
--------------------------|--------------------------|
--------------------------|--------------------------|
--2--2--2--2--1--1--1--1--|--------------------------|
--------------------------|--3--3--3--3--0--0--0--0--|


                                                      
--------------------------|--------------------------|
--------------------------|--------------------------|
--2--2--2--2--1--1--1--1--|--------------------------|
--------------------------|--3--3--3--3--0--0--0--0--|


                                                      
--------------------------|--------------------------|
--------------------------|--------------------------|
--2--2--2--2--1--1--1--1--|--------------------------|
--------------------------|--3--3--3--3--0--0--0--0--|


                                                      
--------------------------|--------------------------|
--------------------------|--------------------------|
--2--2--2--2--1--1--1--1--|--------------------------|
--------------------------|--3--3--3--3--0--0--0--0--|


                                                      
--------------------------|--------------------------|
--------------------------|--------------------------|
--2-----------1-----------|--------------------------|
-----1--1--1-----1--1--1--|--3--1--1--1--0--0--0--0--|


                                                      
--------------------------|--------------------------|
--------------------------|--------------------------|
--2-----------1-----------|--------------------------|
-----1--1--1-----1--1--1--|--3--1--1--1--0--0--0--0--|


                                                      
--------------------------|--------------------------|
--------------------------|--------------------------|
--2-----------1-----------|--------------------------|
-----1--1--1-----1--1--1--|--3--1--1--1--0--0--0--0--|


                                                        
--------------------------|----------------------------|
--------------------------|----------------------------|
--2-----------1-----------|----------------------------|
-----1--1--1-----1--1--1--|--1--1--1--1--0-0-0--0-0-0--|


                                                              
------------------------------|------------------------------|
------------------------------|------------------------------|
------------------------------|------------------------------|
--0-0-0--0-0-0--0-0-0--0-0-0--|--0-0-0--0-0-0--0-0-0--0-0-0--|


                                                                
------------------------------|--------------------------------|
------------------------------|--------------------------------|
------------------------------|--------------------------------|
--0-0-0--7-7-0--0-0-0--0-0-0--|--0-0-0--7-7-0--2-2-2-2-3-3-3-3-|


                                                                  
--------------------------------|--------------------------------|
--------------------------------|--------------------------------|
--------------------------------|--------------------------------|
--1-1-1-1-4-4-4-4-0-0-0--0-0-0--|--0-0-0--0-0-0--2-2-2-2-3-3-3-3-|


                                                                  
--------------------------------|--------------------------------|
--------------------------------|--------------------------------|
--------------------------------|--------------------------------|
--1-1-1-1-4-4-4-4-0-0-0--0-0-0--|--0-0-0--0-0-0--2-2-2-2-3-3-3-3-|


                                                                  
--------------------------------|--------------------------------|
--------------------------------|--------------------------------|
--------------------------------|--------------------------------|
--1-1-1-1-4-4-4-4-0-0-0--0-0-0--|--0-0-0--0-0-0--2-2-2-2-3-3-3-3-|


                                                            
--------------------------------|--------------------------|
--------------------------------|--------------------------|
--------------------------------|--------------------------|
--1-1-1-1-4-4-4-4-0-0-0--0-0-0--|--0-0-0--0-0-0--2----3----|


                                                                     
----------------------|----------------------|----------------------|
----------------------|----------------------|----------------------|
----------------------|----------------------|----------------------|
--1----4----2----3----|--1----4----2----3----|--1----4----2----3----|


                                                    
------------------------|--------------------------|
------------------------|--------------------------|
------------------------|--------------------------|
--1----4----2--3--1--4--|--2--3--1--4--2--3--1--4--|


                                                            
----------------------------|------------------------------|
----------------------------|------------------------------|
----------------------------|------------------------------|
--2--3--1--4--0-0-0--0-0-0--|--0-0-0--0-0-0--0-0-0--0-0-0--|


                                                              
------------------------------|------------------------------|
------------------------------|------------------------------|
------------------------------|------------------------------|
--0-0-0--0-0-0--0-0-0--0-0-0--|--0-0-0--0-0-0--0-0-0--0-0-0--|


                                                              
------------------------------|------------------------------|
------------------------------|------------------------------|
------------------------------|------------------------------|
--0-0-0--0-0-0--0-0-0--0-0-0--|--0-0-0--0-0-0--0-0-0--0-0-0--|


                                                                             
--------------------------|------------------------|------------------------|
--------------------------|------------------------|------------------------|
--------------------------|------------------------|-----------3------------|
--0-0-0--0-0-0--3----3----|--3--2--0--2--3----3----|--3--1--0-----3----3----|


                                                      
------------------------|----------------------------|
------------------------|----------------------------|
------------------------|-----------3----------------|
--3--2--0--2--3----3----|--3--1--0-----0-0-0--0-0-0--|


                                                              
------------------------------|------------------------------|
------------------------------|------------------------------|
------------------------------|------------------------------|
--0-0-0--0-0-0--0-0-0--0-0-0--|--0-0-0--0-0-0--0-0-0--0-0-0--|


                                                          
------------------------------|--------------------------|
------------------------------|--------------------------|
------------------------------|--------------------------|
--0-0-0--0-0-0--0-0-0--0-0-0--|--0-0-0--0-0-0--3----3----|


                                                                           
------------------------|------------------------|------------------------|
------------------------|------------------------|------------------------|
------------------------|-----------3------------|------------------------|
--3--2--0--2--3----3----|--3--1--0-----3----3----|--3--2--0--2--3----3----|


                                                            
----------------------------|------------------------------|
----------------------------|------------------------------|
-----------3----------------|------------------------------|
--3--1--0-----0-0-0--0-0-0--|--0-0-0--0-0-0--0-0-0--0-0-0--|


                                                                    
--------------------------------|----------------------------------|
------------------9-9-9---9-9-9-|----9-9-9---9-9-9---5-7-9---5-7-9-|
----------------7-------7-------|--7-------7-------7-------7-------|
--0-0-0--0-0-0------------------|----------------------------------|


                                                                               
----------------------------|------------------------|------------------------|
----5-7-9---5-7-9-----------|------------------------|------------------------|
--7-------7-----------------|------------------------|-----------3------------|
------------------3----3----|--3--2--0--2--3----3----|--3--1--0-----3----3----|


                                                      
------------------------|----------------------------|
------------------------|----------------------------|
------------------------|-----------3----------------|
--3--2--0--2--3----3----|--3--1--0-----0-0-0--0-0-0--|


                                                                
------------------------------|--------------------------------|
------------------------------|--------------------------------|
------------------------------|--------------------------------|
--0-0-0--0-0-0--0-0-0--0-0-0--|--0-0-0--0-0-0--0-0-0-3-0-0-0-5-|


                                                                
----------------------------------|----------------------------|
----------------------------------|----------------------------|
----------------------------------|----------------------------|
--0-0-0-6-0-0-0-5-0-0-0-3-0-0-0-5-|--0-0-0-6-0-0-0-3-3----3----|


                                                                           
------------------------|------------------------|------------------------|
------------------------|------------------------|------------------------|
------------------------|-----------3------------|------------------------|
--3--2--0--2--3----3----|--3--1--0-----3----3----|--3--2--0--2--3----3----|


                                                            
----------------------------|------------------------------|
----------------------------|------------------------------|
-----------3----------------|------------------------------|
--3--1--0-----0-0-0--0-0-0--|--0-0-0--0-0-0--0-0-0--0-0-0--|


                                                                    
--------------------------------|--4-2-4-2-4-2-4-2-----------------|
----------------5---5---5---5---|------------------2-2-2-2-2-2-2-2-|
------------------7---7---7---7-|----------------------------------|
--0-0-0--0-0-0------------------|----------------------------------|


                                                                             
--------------------------|------------------------|------------------------|
--2-2-2-2-2--2------------|------------------------|------------------------|
--------------------------|------------------------|-----------3------------|
----------------3----3----|--3--2--0--2--3----3----|--3--1--0-----3----3----|


                                                                         
------------------------|------------------------|----------------------|
------------------------|------------------------|----------------------|
------------------------|-----------3------------|--2----1--------------|
--3--2--0--2--3----3----|--3--1--0-----0----2----|------------0--2------|


                                                                     
----------------------|----------------------|----------------------|
----------------------|----------------------|----------------------|
----------------------|--2----1--------------|----------------------|
--0--2------0----2----|------------0--2------|--0--2------0----2----|


                                                                     
----------------------|----------------------|----------------------|
----------------------|----------------------|----------------------|
--2----1--------------|----------------------|--2----1--------------|
------------0--2------|--0--2------0----2----|------------0--2------|


                                                      
--------------------------|--------------------------|
--------------------------|--------------------------|
--------1--2--------------|--------1--2-----0--0--0--|
--0--2--------3--0--0--0--|--0--0--------3-----------|


                                                      
--------------------------|--------------------------|
--------------------------|--------------------------|
--0--0--1--2--------1--2--|--------1--2--1--1--1--1--|
--------------3--0--------|--3--0--------------------|


                                                      
--------------------------|--------------------------|
--------------------------|--------------------------|
--1--1--1--2--------------|--------1--2-----0--0--0--|
--------------3--0--0--0--|--0--0--------3-----------|


                                                      
--------------------------|--------------------------|
--------------------------|--------------------------|
--0--0--1--2--------1--2--|--------1--2--1--1--1--1--|
--------------3--0--------|--3--0--------------------|


                                                      
--------------------------|--------------------------|
--------------------------|--------------------------|
--1--1--1--2--------------|--------1--2-----0--0--0--|
--------------3--0--0--0--|--0--0--------3-----------|


                                                      
--------------------------|--------------------------|
--------------------------|--------------------------|
--0--0--1--2--------1--2--|--------1--2--1--1--1--1--|
--------------3--0--------|--3--0--------------------|


                                                      
--------------------------|--------------------------|
--------------------------|--------------------------|
--1--1--1--2--------------|--------1--2-----0--0--0--|
--------------3--0--0--0--|--0--0--------3-----------|


                                                      
--------------------------|--------------------------|
--------------------------|--------------------------|
--0--0--1--2--------1--2--|--------1--2--1--1--1--1--|
--------------3--0--------|--3--0--------------------|


                                                      
--------------------------|--------------------------|
--------------------------|--------------------------|
--1--1--1--2--------------|--------1--2-----0--0--0--|
--------------3--0--0--0--|--0--0--------3-----------|


                                                      
--------------------------|--------------------------|
--------------------------|--------------------------|
--0--0--1--2--------1--2--|--------1--2--1--1--1--1--|
--------------3--0--------|--3--0--------------------|


                                                      
--------------------------|--------------------------|
--------------------------|--------------------------|
--1--1--1--2--------------|--------1--2-----0--0--0--|
--------------3--0--0--0--|--0--0--------3-----------|


                                                                               
--------------------------|--------------------------|------------------------|
--------------------------|--------------------------|------------------------|
--0--0--1--2--------1--2--|--------1--2--1--1--1--1--|--1--1--1--2------------|
--------------3--0--------|--3--0--------------------|--------------0----2----|


                                                                     
----------------------|----------------------|----------------------|
----------------------|----------------------|----------------------|
--2----1--------------|----------------------|--2----1--------------|
------------0--2------|--0--2------0----2----|------------0--2------|


                                                                     
----------------------|----------------------|----------------------|
----------------------|----------------------|----------------------|
----------------------|--2----1--------------|----------------------|
--0--2------0----2----|------------0--2------|--0--2------0----2----|


                                             
----------------------|--------------------||
----------------------|--------------------||
--2----1--------------|--------------------||
------------0--2------|--0--2--------------||

	  

Search Paypal
auto scroll beats size up size down change color hide chords drawings
tab show chords e-chords YouTube Clip e-chords hide all tabs e-chords go to top tab