Andy Grammer

home > Andy Grammer

You Should Know Better Bass Tab

Andy Grammer

Difficulty: nolevelnolevel

by adalgomes

tuner correct add songbook print version text version save to e-mail
chordsukulelecavacokeyboardtabbassdrumsharmonicsflute Guitar Pro
chords

You Should Know Better

  		


1ST VERSE 
G|------------------|-------------------|-----------------| 
D|------------------|-------------------|-----------------| 
A|------------------|-------------------|-----------------| 
E|-7~~--------------|-11~~--------------|-12~~------------|x4 
PRE CHORUS 
G|------------------|-------------------|-----------------| 
D|------------------|-------------------|-----------------| 
A|------------------|-------------------|-----------------| 
E|-14~--16~~-12~----|-------------------|-----------------|x1 
CHORUS 
G|------------------|-------------------|-----------------|-----------------| 
D|------------------|-------------------|-----------------|-----------------| 
A|------------------|-------------------|-----------------|-----------------| 
E|-7(x16)-----------|14(x16)------------|16(x16)----------|12(x8)-----------| 

G|------------------|-------------------|| 
D|------------------|-------------------|| 
A|------------------|-------------------|| 
E|-7(x16)-----------|11(x8)-12(x8)------|| 


2ND VERSE 
G|------------------|-------------------|-----------------| 
D|------------------|-------------------|-----------------| 
A|------------------|-------------------|-----------------| 
E|-7~~--------------|-11~~--------------|-12~~------------| 

G|------------------|-------------------|-----------------| 
D|------------------|-------------------|-----------------| 
A|------------------|-------------------|-----------------| 
E|-7~~--------------|-1111~~------------|-12~~------------| 

PRE CHORUS 
G|------------------| 
D|------------------| 
A|------------------| 
E|-14~--16~~-12~----|x1 

CHORUS 
G|------------------|-------------------|-----------------|-----------------| 
D|------------------|-------------------|-----------------|-----------------| 
A|------------------|-------------------|-----------------|-----------------| 
E|-7(x16)-----------|14(x16)------------|16(x16)----------|12(x8)-----------| 

G|------------------|-------------------|| 
D|------------------|-------------------|| 
A|------------------|-------------------|| 
E|-7(x16)-----------|11(x8)-12(x8)------||<=== *This is the "here we are part" play this  
two times. 


BRIDGE 
G|------------------|-------------------|-----------------| 
D|------------------|-------------------|-----------------| 
A|------------------|-------------------|-----------------| 
E|-4---12---1616--12|(0)----------7~----|14(0)------------| 

G|------------------|-------------------|-----------------| 
D|------------------|-------------------|-----------------| 
A|------------------|-------------------|-----------------| 
E|-77--141414-11(14)|---77141414-11(14)-|-----------------| 


G|------------------|-------------------|-----------------| 
D|------------------|-------------------|-----------------| 
A|------------------|-------------------|-----------------| 
E|-4(x16)---7(x16)--|-14(x26)-----------|-----------------| 

CHORUS 

G|------------------|-------------------|-----------------| 
D|------------------|-------------------|-----------------| 
A|------------------|-------------------|-----------------| 
E|7(x16)---14(x16)--|16(x12)---19(x4)---|12(x24|)---------|THESE ARE INTERCONNECTED. I  
JUST SPACED THEM OUT. 

HERE WE ARE'S 
G|------------------|-------------------|| 
D|------------------|-------------------|| 
A|------------------|-------------------|| 
E|-7(x16)-----------|11(x8)-12(x8)------|| REPEAT LIKE UP TO THREE TIMES. 
 
	  

Search Paypal
auto scroll beats size up size down change color hide chords drawings
tab show chords e-chords YouTube Clip e-chords hide all tabs e-chords go to top tab