Andrés Calamaro

home > Andrés Calamaro

Ok Perdón Bass Tab

Andrés Calamaro

Difficulty: nolevelnolevel

by alesbarras

tuner correct add songbook print version text version save to e-mail
chordsukulelecavacokeyboardtabbassdrumsharmonicsflute Guitar Pro
chords

Ok Perdón

(Andrés Calamaro)

  		Esta es la versión en vivo del tema del CD EL REGRESO asique es lógico que 
encuentren diferencias con el tema de estudio. Sin embargo elegí sacar esta 
versión porque además de que es más sencilla, suena mejor que la otra. 

Las partes que estan marcadas con * no deben variarse a lo largo del tema 
ya que son las notas fundamentales de los acordes. Las transiciones pueden 
hacerlas como gusten, yo les dejo como más me parece a mi... 



         Yo no quise lastimarte   solamente te dije que no 
G|-----------------------------------------------------------------| 
D|-------------------------0-------0----------------------2--2-2---| 
A|-------------------0-2-0-----------3-2------------2-0------------| 
E|-------3----------------------------------------------3----------| 
         *                 *           *                  * 


    No estarás acostumbrada a sentirte rechazada     Ok Perdón 
G|--------------------------------------------------------------| 
D|--------------------------------------------------------------| 
A|---------2-3---3------------3-2------------------0-2-3--------| 
E|--------------------------------3--------------3--------------| 
             *                    *                    * 


       Fue sin   querer 
G|-----------------------------------| 
D|--------------------------0--------| 
A|--0---0--------2-1-0----2---2-0----| 
E|----3------------------------------| 
                     * 


Continua la secuencia hasta el último verso que dice: 


    ¿Por qué, por qué?   te pusiste así        la próxima vez 
G|------------------------------------------------------------------| 
D|-----------------------------0--------0---------------------------| 
A|-----------------------0-2-0------------4-3-2---------------------| 
E|----3-------------------------------------------------------------| 
      *                        *              * 

    Te digo que sí          Igual somos amigos       Porque para enemigos 
G|------------------------------------------------------------------------| 
D|---------2--2-2---------------------------------------------------------| 
A|---2-0--------------2---2----2-3--3---------3-2--------2--3---2-3---3---| 
E|-------3----------3---3-------------------------3---3-------------------| 
           *                     *                *         * 

      Hay un montón de gente    hay un montón de gente 
G|-----------------------------------------------------------------| 
D|--------0--0-----------------------------------------------------| 
A|---0-2-------------0-2-0-------0-2-0-3---3-3--0-2-0--------------| x4 
E|-------------------------3-------------------------3--3-3--------| 
          *                *           *             * 


G|------------------------------------------| 
D|-----0---------------------2--------------| 
A|-------------------------------3-2-0------| 
E|-------------------------------------3--0-| 
                                          * 

Un saludo a vicky que me ayudó a ver que la música no es algo tan lejano 
y que uno puede tocar lo que quiera si le pone esfuerzo. 

Espero que les sirva.. éxitos!
	  

Search Paypal
auto scroll beats size up size down change color hide chords drawings
tab show chords e-chords YouTube Clip e-chords hide all tabs e-chords go to top tab