Andre Nickatina

Even Pimps Get Broken Hearts

Andre Nickatina

bass nolevel nolevel

by  VICTBORGES

save to print version add songbook text version e-mail correct tuner
chordsukulelecavacokeyboardtabbassdrumsharmonicaflute Guitar Pro
close

there isn't a video lesson for this song

chords

Even Pimps Get Broken Hearts

	  		
Intro lick 
G|------|-----| 
D|------|-----| 
A|-9-8--|-----|(x1) 
E|-----9|-4/6-| 
B|------|-----| 

Main lick (Played throughout the song) 
G|--------|-----------|---------------|----------| 
D|--------|-----------|---------------|----------| 
A|--------|-----------|---------------|----------| 
E|--------|----2------|----6-5-4-2-4--|----2-3-4~| 
B|-4-2-4--|--4---2-4--|--4------------|--4-------| 

G|----------|-----------|-----------------|----------| 
D|----------|-----------|-----------------|----------| 
A|----------|-----------|----8-7-6~-------|----------| (Until end) 
E|---2-3-4~-|----4-5-6~-|--6---------6----|----2-----| 
B|-4--------|--4--------|--------------4--|--4---2-4-| 


******************** 

| \   Slide-down 
| ~   Vibrato 

******************** 
		  

See also:

bass Nelly - Splurge bass Akon - Lonely Baixo bass Eminem - Cumon Everybody bass Beastie Boys - Eggman bass Eminem - Stan bass Eminem - Guilty Conscience
e-chords

Other versions:

bass Andre Nickatina - Even Pimps Get Broken Hearts
auto scroll beats size up size down change color hide chords drawings
tab show chords e-chords YouTube Clip e-chords hide all tabs e-chords go to top tab

share with facebook