Amy Winehouse

You Know I'm No Good

Amy Winehouse

bass Expert expert

by  PQNINO2003

save to print version add songbook text version e-mail correct tuner
chordsukulelecavacokeyboardtabbassdrumsharmonicaflute Guitar Pro
close

there isn't a video lesson for this song

chords

You Know I'm No Good

Year: 2006 - Album: Back to Black

(Amy Winehouse)

	  		[email protected] 

Introdução 
Bateria 

g-----------------------------  
d-----------------------------   3 vezes 
a--5-------5-------3--4------  
e------------5--5-------------   

g------------------------- 
d------------------------- 
a--5-------5---5----3--4-- 
e------------5---5-------- 

Verso 1 
g------------------------------------------------------- 
d------------------------------------------------------- 
a--5-------5-------8--9-----10-------10---------10--11-- 
e------------5--5-----------------------10--10---------- 

g----------------------------------------------------- 
d----------------------------------------------------- 
a--12------12---------12--------5-------5-------3--4-- 
e-------------12--12------9---------------5--5--------       

g------------------------ 
d------------------------ 
a--5-------5-------5----- 
e------------5--5-----5-- 

Pré Refrão 1 
g--------------------------|-------------------------- 
d--5-----5-----5-----5-----|--5-----5-----5-----5----- 
a-----5-----5-----5-----5--|-----5-----5-----5-----5-- 
e--------------------------|-------------------------- 

g--------------------------|-------------------------- 
d--------------------------|-------------------------- 
a--7-----7-----7-----7-----|--7-----7-----7-----7----- 
e-----7-----7-----7-----7--|-----7-----7-----7-----7-- 

g--------------------------|-------------------------- 
d--------------------------|-------------------------- 
a--8-----8-----8-----8-----|--8-----8-----8-----8----- 
e-----8-----8-----8-----8--|-----8-----8-----8-----8-- 

g--------------------------|-------------------------- 
d--------------------------|--7-----7-----7-----7----- 
a--7-----7-----7-----7-----|-------------------------- 
e-----7-----7-----7-----7--|-----5-----5-----5-----5-- 

Refrão 1 
g--------------------------------------------------------    
d-------------------------------------------------------- 
a--5-------5-------10--11-----12-------12---------12----- 
e------------5--5-------------------------12--12------10- 

g------------------------------------------------------- 
d------------------------------------------------------- 
a--7-------7-------7-------------12---12---------12----- 
e------------7--7-----7-------7----------10--10------9-- 



Verso 2 
g------------------------------------------------------- 
d------------------------------------------------------- 
a--5-------5-------8--9-----10-------10---------10--11-- 
e------------5--5-----------------------10--10---------- 

g-------------------------------------7--7-7-7-7-7-7-7------ 
d------------------------------------------------------7-0-- 
a--12-------12---------12--------5-------------------------- 
e--------------12--12------9-------------------------------- 

g------------------------------------------------------- 
d------------------------------------------------------- 
a--5-------5-------8--9-----10-------10---------10--11-- 
e------------5--5-----------------------10--10---------- 

g------------------------------------------------------ 
d------------------------------------------------------ 
a--12-------12---------12--------5-------5-------5----- 
e--------------12--12------9---------------5--5-----5-- 

Pré Refrão 1  

Refrão 2 (igual 1) 



g--------------------------- 
d-----------7---7---7---7--- 
a--------------------------- 
e---------5---5---5---5---5- 

Intervalo (saxophone solo) 
g--------------------------------------------------------- 
d--------------------------------------------------------- 
a--5-------5-------10--11-----12-------12---------12------ 
e------------5--5-------------------------12--12------10-- 

g----------------------------------------------------------- 
d----------------------------------------------------------- 
a--7-------7-------7------------10-12--10-12--10-12--10-12-- 
e------------7--7-----7----5-------------------------------- 

g--------------------------7--7-7-7-7-7-7-7------ 
d----------------2--------------------------7-0-- 
a---------------------5-------------------------- 
e------------------------------------------------ 


Final 
Volta verso 1 
Pré Refrão  1 
Refrão      1 
		  

auto scroll beats size up size down change color hide chords drawings
tab show chords e-chords YouTube Clip e-chords hide all tabs e-chords go to top tab

share