Amy Winehouse

home > Amy Winehouse

Back To Black Bass Tab

Amy Winehouse

Difficulty: ExpertExpert

by Guido%60%6008

tuner correct add songbook print version text version save to e-mail
chordsukulelecavacokeyboardtabbassdrumsharmonicsflute Guitar Pro
chords

Back To Black

Year: 2006 - Album: Back to Black

	  ------------------------------------------ 
------------------------------------------ 
--5x55x55x55--3~----------------1x11x11x11 
----------------3x33x33x33--5~------------ 

------------------------------------------ 
------------------------------------------ 
----1--------------3~--------------------- 
--3---5~x55x55x55------------------------- 

depois do 3~ volta pro começo e fica nisso o resto da música 
	  

amy-winehouse-back-to-black Play

there is a video lesson for this song

view more
Search
auto scroll beats size up size down change color hide chords drawings
tab show chords e-chords YouTube Clip e-chords hide all tabs e-chords go to top tab