American Hi-Fi

The Art Of Losing (ver. 2)

American Hi-Fi

bass

save to print version add songbook text version e-mail correct tuner
chordsukulelecavacokeyboardtabbassdrumsharmonicaflute Guitar Pro
close

there isn't a video lesson for this song

chords

The Art Of Losing (ver. 2)

	  		

Art Of Losing

American Hi Fi

Tabber:T4-TURBO

if this tab isn't right please correct it kuz its my first atempt at
a really punk sounding song...& the bass has a really weak sound in
this song.

Riff 1:
g:------------------------------------------------|
d:------------------------------------------------|
a:------------------------------------------------|
d:0-0-0-2-2----0-0-0-2-2----0-0-0-2-2----0-0-0-2-2|


Riff 1:
g:-----------------------------------------------|
d:--------------------------------------(7-5-4-0)|2nd time
a:7-7-7-7---7-5-5--5-5---5--3-3------3---2-0-----|
d:--------9------------7---------3-3---3-----3-2-|

Riff 2:
g:-----------------------------------------------------------------|
d:----4-5-----4-5-----4-5-7-5-4------------------------------------|
a:7-7-----5-5-----3-3-----------5-(5-5-5-5-5-5-5-5-3-3-3-3-5-5-5-5)|2nd time
d:-----------------------------------------------------------------|

Riff 3:
g:-------------------------------|
d:-------------------------------|
a:--------3-3-3-3---------5-5-5-5|
d:2-2-2-2---------5-5-5-5--------|

Riff 4:
g:-------------------------------------|
d:-------------------------------------|
a:--------5-5-5-5-5-5-3-3-3-3-3-5-5-5-5|
d:5-5-5-5------------------------------|

Fill:
g:-------------------------------|
d:5-5-5-5-5-5-7-7-7-7-7-7-7-7-7-7|
a:-------------------------------|
d:-------------------------------|

Riff 5:
g:---------------------------------------|
d:---------------------------------------|
a:--------3-3-3-3-5-5-5-5-3-3-3-3-5-5-5-5|
d:5-5-5-5--------------------------------|

		  

See also:

bass Allister - Fraggle Rock bass The Cure - The Lovecats bass American Hi-Fi - Beautiful Disaster bass American Hi-Fi - My Only Enemy bass Bowling For Soup - Surf Colorado bass American Hi-Fi - A Bigger Mood (ver. 2)
e-chords

Other versions:

bass American Hi-Fi - The art of losing bass American Hi-Fi - The Art Of Losing (ver. 2) bass American Hi-Fi - The Art Of Losing (ver. 3) bass American Hi-Fi - The Art Of Losing (ver. 4)
auto scroll beats size up size down change color hide chords drawings
tab show chords e-chords YouTube Clip e-chords hide all tabs e-chords go to top tab

share