Alvin Slaughter

Thats When

Alvin Slaughter

bass

by  LUCICAMARGO

save to print version add songbook text version e-mail correct tuner
chordsukulelecavacokeyboardtabbassdrumsharmonicaflute Guitar Pro
close

there isn't a video lesson for this song

chords

Thats When

	  		Intro 

G|----------|------------|----------------| 
D|----------|------------|----6--3--------| 
A|--3-------|------------|-4--------4h6p4-| 
E|-----0--5-|-5--0--5--4-|----------------| 

verse 1 

G|--------------|----------------------| 
D|--------7-----|--------5--------5----| 
A|--3--7-----6--|--5--5-----5--3-------| 
E|--------------|--------------------3-| 

G|-------------------|----------------------| 
D|-------------7-----|----------5--5--6--7--| 
A|--3--3-3--7-----6--|--5--3/5--------------| 
E|-------------------|----------------------| 

Pre Chorus 

G|------------------|--------------------------| 
D|--7--7-----7/9\7--|-----7--6--6--6-5--7p5--5-| 
A|--------7---------|--5-----------------------| 
E|------------------|--------------------------| 

G|----------------|--------------------| 
D|--4-------------|--3--3-4------------| 
A|-----5--5--5-7--|----------5--5--5---| 
E|----------------|------------------3-| 

Chorus 

G|-----------------|---------------------|------------------------------| 
D|--5-----------7--|--7--7-----5h7-------|------------------------5-----| 
A|--------3--7-----|--------7-------5h7--|-----5----5--5----5-----------| 
E|-----3-----------|---------------------|--5-----5-------5----3-----3--| 

G|--------------------|-------------| 
D|--------------7--7--|--------5--5-| 
A|--3-----3--7--------|--5--5-------| 
E|-----3--------------|-------------| 

G|--------------------| 
D|--------7-----------| 
A|--3--7-----3--6--5--| 
E|--------------------| 

verse 2 

G|-------------------------|---------------------------| 
D|-------------------------|---------------------5-----| 
A|--3--3--5--6--7----------|--6--5--5-5--5-------------| 
E|-----------------8--7--5-|---------------3--3-----3--| 


G|---------------------|--------5h7------------| 
D|-----------5-6-7-----|-----7-------5h7-----5-| 
A|--3--3--7---------6--|--5---------------5----| 
E|---------------------|-----------------------| 

Pre Chorus 

G|--------------------------|--4h5p4---------------------------| 
D|--5--6--7-----7h9--10--6--|---------7--5--5--5-4--5p4--------| 
A|-----------7--------------|----------------------------7--5--| 
E|--------------------------|----------------------------------| 

G|----------|--------------------| 
D|----------|--3--3-4------------| 
A|--5--5-7--|----------5--5--5---| 
E|----------|------------------3-| 

Chorus 

G|-----------------|---------------------|------------------------------| 
D|--5-----------7--|--7--7-----5h7-------|------------------------5-----| 
A|--------3--7-----|--------7-------5h7--|-----5----5--5----5-----------| 
E|-----3-----------|---------------------|--5-----5-------5----3-----3--| 

G|----------------------|--------------| 
D|----------------7--7--|--------5-----| 
A|--3--5--6--7--7-------|--5--5--------| 
E|----------------------|-----------3--| 

Bridge 

G|----------------------|-------------------------| 
D|-------------------6--|------------------8--10--| 
A|--8-----8--10--11-----|--10------10--12---------| 
E|-----8----------------|------10-----------------| 

Chorus 

G|--------4--4-----------------|---------------------------------| 
D|-----4-----------------7-----|----------------9--9-------------| 
A|--5-----------7--7-----------|--5--7--8--9--9------7--7--7--7--| 
E|--------------------5-----5--|---------------------------------| 

G|-------------------|---------4-----------| 
D|--7-7-7-7--7--7--7-|------4-----7--5-----| 
A|-------------------|--\5--------------3--| 
E|-------------------|---------------------| 


************************************ 

| \  Slide down 
| /  Slide up 
| h  Hammer-on 
| p  Pull off 

************************************ 
		  

auto scroll beats size up size down change color hide chords drawings
tab show chords e-chords YouTube Clip e-chords hide all tabs e-chords go to top tab

share