Allister

Jimmys Dream Girl

Allister

bass

save to print version add songbook text version e-mail correct tuner
chordsukulelecavacokeyboardtabbassdrumsharmonicaflute Guitar Pro
close

there isn't a video lesson for this song

chords

Jimmys Dream Girl

	  		

intro x2
G|-----------------------------------------------------------|
D|----------------------------------8>----6-----8------------|
A|----6>----------------------6>-----------------------------|
E|----------6>----4>----6>-----------------------------------|
 
verse & most of chorus         "i know that he loves her...."
G|------------------| then the |-----------------------------|
D|------------------| other    |-----------------------------|
A|--6>--------------| chorus   |--6x------6------------------|
E|------6>--4>--6>--| part is: |------6x----6-4---4>---6>----|
 
first after chorus solo riff
G|----------5------------------------10-8-7-8-7-5------------|
D|------5-8---8-5-6-8-6-5--------5-8--------------8-6-5------|
A|----6-------------------8-5--6-----------------------------|
E|-----------------------------------------------------------|
 
second after chorus solo riff
G|----------5------------------------10-8-7-8>-10>-----------|
D|------5-8---8-5-6-8-6-5--------5-8-------------------------|
A|----6-------------------8-5--6-----------------------------|
E|-----------------------------------------------------------|
 
ending riff 
G|----------------------------------------------------8>-----|
D|-----------------------------------------------8>----------|
A|---6>------66---------6>--------6>--------6>---------------|
E|-------6>-----66-44--------6>--------6>--------------------|

		  

See also:

bass American Hi-Fi - Scar bass Allister - Racecars bass Allister - Somewhere Down In Fullerton bass Box Car Racer - My First Punk Song bass American Hi-Fi - The Art Of Losing (ver. 2) bass Wire - Lowdown
e-chords

Other versions:

bass Allister - Jimmys Dream Girl
auto scroll beats size up size down change color hide chords drawings
tab show chords e-chords YouTube Clip e-chords hide all tabs e-chords go to top tab

share