Allister

Jacob Thinks Im Gay

Allister

bass

save to print version add songbook text version e-mail correct tuner
chordsukulelecavacokeyboardtabbassdrumsharmonicaflute Guitar Pro
close

there isn't a video lesson for this song

chords

Jacob Thinks Im Gay

	  		

Artist - 
Song - Jacob Thinks I'm Gay
Album - Dead Ends and Girlfriends

Intro: 
G---------------------------------
D---------------------------------
A---------------------------8--6--
E------------------------9--------

Verse
G-----------------------------------
D-----------------------------------
A-----------------4-4-4-4-6-6-6-6---
E-4-4-4-4-1-1-1-1-------------------

Chorus
G----------------------------------------------------------------------
D----------------------------------------------------------------------
A-----------------4-4-4-4-6-6-6-6----4-4-4-4---------4-4-4-4-6-6-6-6---
E-4-4-4-4-1-1-1-1----------------------------6-6-6-6-------------------

G-----------------
D-----------------
A------------8--6-
E-4-44-4-9-------

		  

See also:

bass American Hi-Fi - Scar bass Allister - Racecars bass Allister - Somewhere Down In Fullerton bass Box Car Racer - My First Punk Song bass American Hi-Fi - The Art Of Losing (ver. 2) bass Wire - Lowdown
e-chords

Other versions:

bass Allister - Jacob Thinks Im Gay
auto scroll beats size up size down change color hide chords drawings
tab show chords e-chords YouTube Clip e-chords hide all tabs e-chords go to top tab

share