All That Remains

Not Fading

All That Remains

bass Advanced advanced

by  TERR_SCHMITZ

save to print version add songbook text version e-mail correct tuner
chordsukulelecavacokeyboardtabbassdrumsharmonicaflute Guitar Pro
close

there isn't a video lesson for this song

chords

Not Fading

	  		

Intro (0:16) 
Gb|----------------|----------------|----------------|----------------| 
Db|----------------|----------------|----------------|----------------| 
Ab|2-------2-5-5-5-|----------------|----------------|--------4--5-2--| 
b |----------------|3~~~~~~~~~~~2222|4----------7-10/|02-2-2---22-2-25| 
                                       

Verse 
Gb|----------------|----------------|----------------|----------------| 
Db|----------------|--------5-4-2---|----------------|----------------| 
Ab|2-222-222-225555|--------------5-|----------------|--------4--5-2--| 2x 
b |----------------|3-333-33--------|5-555-555-555-55|02-2-2---22-2-25| 
                       

Pre-Chorus 
Gb|----------------|----------------|----------------|----------------| 
Db|----------------|----------------|----------------|--------4422----| 
Ab|-------------2~~|----------2~~---|-------------2~~|------------5544| 
b |3~~~~~~~~~5~~---|3-3~~~~~~~---5~~|3-3~~~~~~~5~~---|3-3~~~~~--------| 
                                        

Chorus 
Gb|----------------|----------------|----------------|----------------| 
Db|----555---------|----------------|----------------|----------------| 
Ab|----------------|----------------|2-2225-4-2225-4-|2-2225-4-222542-| 
b |3--3----333-33--|5--5555-555-500-|----------------|---------------5| 
                       

Gb|----------------|----------------|----------------|----------------| 
Db|----555---------|----------------|----------------|----------------| 
Ab|----------------|----------------|2-2225-4-2225-4-|2-2225-4-22-----| 
b |3--3----333-33--|5--5555-555-500-|----------------|----------------| 
                     

Verse 

Pre-Chorus 2 
Gb|----------------|----------------|----------------|----------------| 
Db|----------------|----------------|----------------|--------4422----| 
Ab|-------------2~~|----------2~~---|-------------2~~|------------5544| 
b |3~~~~~~~~~5~~---|3~~~~~~~~~---5~~|3~~~~~~~~~5~~---|3~~~~~~~--------| 
                                            

Chorus 2 
Gb|----------------|----------------|----------------|----------------| 
Db|----555---------|----------------|----------------|----------------| 
Ab|----------------|----------------|2-2225-4-2225-4-|2-2225-4-222542-| 2x 
b |3--3----333-33--|5--5555-555-500-|----------------|---------------5| 
                       

Breakdon 
Gb|----------------|----------------|----------------|-------------------| 
Db|----------------|----------------|----------------|-------------------| 
Ab|----------------|----------------|---------2222222|---------542-------| 2x 
b |2-2--222-2222222|2-2--222-333-555|2-2--222--------|2-2--222-----111---| 
          -3- -3-        -3- -3----| 

Bridge 
Gb|----------------|----------------|----------------|----------------| 
Db|----------------|----------------|----------------|----------------| 
Ab|2~~~~~~~~~~~~~~~|~~~~~~~~~~~~~~~~|----------------|----------------| 
b |----------------|----------------|5~~~~~~~~~~~~~~~|~~~~~~~~~~~~~~~~| 
                                                    

Gb|----------------|----------------|----------------|----------------| 
Db|----------------|----------------|----------------|-----------24542| 
Ab|----------------|----------------|----------------|--------245-----| 
b |2~~~~~~~~~~~~~~~|~~~~~~~~~~~~~~~~|5~~~~~~~~~~~~~~~|~~~~~~~~--------| 
                                                           

Gb|----------------|----------------|----------------|----------------| 
Db|----------------|----------------|----------------|----------------| 
Ab|2-2-2-2-2-2-2-2-|2-2-2-2-2-2-2-2-|----------------|----------------| 
b |----------------|----------------|5-5-5-5-5-5-5-5-|5-5-5-5-5-5-5-5-| 
 

Gb|----------------|----------------|----------------| 
Db|----------------|----------------|----------------| 
Ab|----------------|----------------|2~~~~~5-5~~~----| 
b |2-2-2-2-2-2-2-2-|2-2-2-2-2-2-2-2-|------------2-5-| 
                           

Pre-Chorus 3 
Gb|----------------|----------------|----------------|----------------| 
Db|----------------|----------------|----------------|----------4~~2~~| 
Ab|-------------2~~|~~--------2~~---|-------------2~~|~~--------------| 
b |3~~~~~~~~~5~~---|--3~~~~~~~---5~~|~~3~~~~~~~5~~---|--3~~~~~~~------| 
                                              

Chorus 3 
Gb|----------------|----------------|----------------|----------------| 
Db|----------------|----------------|----------------|----------------| 
Ab|------------555-|----------------|2-2225-4-2225-4-|2-2225-4-222542-| 
b |3--3333-333-----|5--5555-555-00--|----------------|---------------5| 
                       

Gb|----------------|----------------|----------------|----------------| 
Db|----555---------|----------------|----------------|----------------| 
Ab|----------------|----------------|2-2225-4-2225-4-|2-2225-4-222542-| 
b |3--3----333-33--|5--5555-555-500-|----------------|---------------5| 
                       

nding 
Gb|----------------| 
Db|----------------| 
Ab|----------------| 
b |7/~~~~~~--------| 
           
 
		  

auto scroll beats size up size down change color hide chords drawings
tab show chords e-chords YouTube Clip e-chords hide all tabs e-chords go to top tab

share