Alien Ant Farm

Smooth Criminal (ver. 4) Bass Tab

Alien Ant Farm

Difficulty: nolevelnolevel

tuner correct add songbook print version text version save to e-mail
chordsukulelecavacokeyboardtabbassdrumsharmonicsflute Guitar Pro
close

there isn't a video lesson for this song

chords

Smooth Criminal (ver. 4)

  		Transcribed by: Brad Delson 
Email: [email protected]
Instrument : Hartke WK5 5 String Bass

Intro :
|--------------------------------------------------------------|
|--------------------------------------------------------------|
|--------------------------------------------------------------| 
|--------------------------------------------------------------|
|-5-5-5-5-3-5-7-7--5-7-8-8--7-8-7--3-5-------------------------|

Verse 1 :
|--------------------------------------------------------------|
|--------------------------------------------------------------|
|--------------------------------------------------------------|
|--------------------------------------------------------------|
|-5-5-5-5-3-5-7-7--5-7-8-8--7-8-7--3---------------------------|

Verse 2 :
|--------------------------------------------------------------|
|--------------------------------------------------------------|
|--------------------------------------------------------------| 
|--------------------------------------------------------------|
|-1-1-1-1-1-1-1-1-1-1-1-1-3-3-0--------------------------------|

Verse 3 :
|--------------------------------------------------------------|
|--------------------------------------------------------------|
|--------------------------------------------------------------|
|--------------------------------------------------------------|
|-1-1-1-1-1-1-1-1-1-0-0-0-0-0-0-3-5----------------------------|

Verse 4 :
|--------------------------------------------------------------|
|--------------------------------------------------------------|
|--------------------------------------------------------------|
|--------------------------------------------------------------|
|-5-5-5-5-3-3-3-3-3-1-1-1-1-3-1-3-5----------------------------|

Verse 5 :
|--------------------------------------------------------------|
|--------------------------------------------------------------|
|--------------------------------------------------------------|
|--------------------------------------------------------------|
|-5-5-5-5-3-3-3-3-3-1-1-1-0-0-0-3------------------------------|

Verse 6 :
|--------------------------------------------------------------|
|--------------------------------------------------------------|
|--------------------------------------------------------------|
|--------------------------------------------------------------|
|--1-1-1-1-1-1-1--3-3-0-1--1-1--1--5---------------------------|


Order to play :
Intro X7
Verse 1 X1
Verse 2 X4
Verse 3 X1
Verse 4 X3
Verse 5 X1
Verse 2 X2
Verse 6 X1
Intro X3
Verse 1 X1
Verse 2 X3
Verse 3 X1
Verse 4 X3
Verse 5 X1
Verse 6 X1
Intro X7
Verse 1 X1
Verse 4 X8
Intro X4
	  

auto scroll beats size up size down change color hide chords drawings
tab show chords e-chords YouTube Clip e-chords hide all tabs e-chords go to top tab

share with facebook

Search Paypal