Alien Ant Farm

Smooth Criminal (ver. 3) Bass Tab

Alien Ant Farm

Difficulty: AdvancedAdvanced

tuner correct add songbook print version text version save to e-mail
chordsukulelecavacokeyboardtabbassdrumsharmonicsflute Guitar Pro
close

there isn't a video lesson for this song

chords

Smooth Criminal (ver. 3)

  		Tabbed by anthony

Band: 
 Smooth Criminal
Album: ANTology

Intro  


E|--5---|


Verse

G|-----------------------------------------------------|
D|-----------------------------------------------------|
A|-----------------------------------------------------|
E|--5-5-5-5-3-5-7-7-----5-7-8-8----8-8--7--3--5--------|

Or on a 5 string

B|----7--|

G|-----------------------------------------------------|
D|-----------------------------------------------------|
A|-----------------------------------------------------|
E|-----------------------------------------------------|
B|--7-7-7-7-5-7-9-9-----7-9-10-10---10-10-9-5-7--------|

Prechorus: (first 3 times)
     
G|-----------------------------------------------------|
D|-------------3--------3------------------------------|
A|-----------------------------------------------------|
E|-1-1-1-1-1------1--1------1--3-3--1------------------|
                              

On the 4th time play:

G|-----------------------------------------------------|
D|-------------3---------------------------------------|
A|-----------------------------------------------------|
E|-1-1-1-1-1---------1--0------3-0-3-5-----------------|


Chorus:

G|-----------------------------------------------------|
D|-----------------------------------------------------|
A|-----------------------------------------------------|
E|-5-5-5-5-5-5---3-3---3-3-1-1---1-1---3-1-3-5---------|


AFter Chorus: 3x

G|-----------------------------------------------------|
D|-------------3--------3------------------------------|
A|-----------------------------------------------------|
E|-1-1-1-1-1------1--1-----1--3-3--1-------------------|


Ending of After Chorus, then go back to main riff

G|-----------------------------------------------------|
D|-----------------------------------------------------|
A|-----------------------------------------------------|
E|--0----0-0----0--------------------------------------|
	  

auto scroll beats size up size down change color hide chords drawings
tab show chords e-chords YouTube Clip e-chords hide all tabs e-chords go to top tab

share with facebook

Search Paypal