Alien Ant Farm

home > Alien Ant Farm

Attitude (ver. 3) Bass Tab

Alien Ant Farm

Difficulty: nolevelnolevel

tuner correct add songbook print version text version save to e-mail
chordsukulelecavacokeyboardtabbassdrumsharmonicsflute Guitar Pro
chords

Attitude (ver. 3)

  		Transcribed By: AlanTheWise ([email protected])


Alright, I've recieved many emails and such telling me that this song is done with
an upright bass. Yes, in the video Tye uses an upright bass. But when they play the
song LIVE, he uses either a FIVE or SIX (doesnt matter which since he doesnt use 
the high C string) string bass guitar. I know this might be hard for some of you to
understand, but just because you saw the music video doesn't mean you know how the
song is played! Sometimes artists will change the instrument for the video because
it looks better or some other such reason! Sorry if I sound bitter, but I'm getting
tired of hearing people "correct" me.


^ pinch harmonic
/ slide up
\ slide down

Intro Riff/Chorus Riff ver. 2
G:------------------------------------------------------|
D:----2-----4-----5-----7-----9-----5-----4-------------|
A:-----------------------------------------------5------|
E:--0---0/2---2/3---3/5---5/7---7\3---3\2---2-----------|
B:---------------------------------------------3--------|


Verse Riff pt. 1         Verse Riff pt.2
G:-------------|	G:----------------------------------------------|
D:-------------|	D:----------------------------------------------|
A:-------------|	A:----------------------------------------------|
E:---7---5--5--|	E:---7---5--5--0-2-5----7---5--5--0-2-5--0-2-5--|
B:-------------|	B:----------------------------------------------|


Chorus Riff ver. 1(Your attitude is welcome...)
G:--------------------------------------------------------------------------------
D:----9-----11--------------------------------------------------------------------
A:--------------------------------------------------------------------------------
E:--7---7/9----9/10--10--10--10--10--10--12--12--12\9--9--9/15--15--15--15--14-14-
B:--------------------------------------------------------------------------------

G:--------------------------------------------------------------------------------|
D:--------------------------------------------------------------------------------|
A:--------------------------------------------------------------------------------|
E:--7--7--7--5--5--5--------------------12--12--12\9--9--9/15--15--15--15--14-14--|
B:--------------------3--3--3--3--3--3--------------------------------------------|


Bridge
G:--^5--^7--^9-----|      |---^5--^7--^7---|
D:-----------------|      |----------------|
A:-----------------| (x3) |----------------|
E:-----------------|      |----------------|
B:-----------------|      |----------------|


Key Change in Chorus Riff (3:08)
G:--------------------------------------------------
D:----4-----5-----7-----9-----11-----6-----4--------
A:---------------------------------------------4---- Then back to the normal
E:--2---2/3---3/5---5/7---7/9----9\4---4\2---------- chorus riffs
B:-------------------------------------------2------


I was asked to include the order to which it all goes, so here it is the best
that I could get it. Hope it helps :)

Intro/Chrorus Riff ver.2 (x2)
Verse Riff (x12)
Verse Riff pt. 2 (x4)
Chrorus Riff ver.1
Bridge
Verse Riff pt. 1 (x8)
Verse Riff pt. 2 (x4)
Chorus Riff ver.1 (x2)
Chorus Riff ver.2 (x2)
Key Change Chorus
Chorus Riff ver.2
(break for a bit)
Verse Riff pt. 1 (x2)
Verse Riff pt. 2
Chorus Riff ver.1 (x3)
Verse Riff pt. 1 (x4)
And then finish with the first part of the bridge.


And that would be all that there is to it. All questions, comments, requests, 
corrections, and hate mail can be sent to [email protected]

Please realize that if you request a song for me to tab out that the odds of me
tabbing it are not so high, consittering it takes a good deal of time. But feel
free to ask anyway! But I will try my best.

CHECK OUT MY OTHER TABS!!!
	  

Search Paypal
auto scroll beats size up size down change color hide chords drawings
tab show chords e-chords YouTube Clip e-chords hide all tabs e-chords go to top tab