Alice in Chains

home > Alice in Chains

Man in the Box Bass Tab

Alice in Chains

Difficulty: ExpertExpert

tuner correct add songbook print version text version save to e-mail
chordsukulelecavacokeyboardtabbassdrummharmonicsflute Guitar Pro
chords

Man in the Box

Year: 1990 - Album: Facelift

(Jerry Cantrell/ Layne Staley/ Sean Kinney/ Michael C. Starr/ Cantrell/ Staley)

  		Tuning: Eb, Ab, Db, Gb
 
Verse
				 x?
|~~~~~~~~~~~~~~~~~~~~~~~~~~~~~~~~~|
		x3			 		
|--------------|------------------|---------------|
|*------------*|------------------|---------------|
|*------------*|----------------5-|-----5---5-7---|
|---0-----0-0--|---0-----0-0-5h7--|---0---0-------|


Pre-Chorus					       Build Up
						       to Chorus 
						   x3 |~~~~~~~~~~~~~~|
|------------------|------------------|--------------|---------------|
|*-----------------|-----------------*|*------------*|---------------|
|*-----1-1-2-2-3-3-|-----2-2-1-1-0-0-*|*------------*|---------------|
|--3-3-------------|-3-3--------------|---0-----0-0--|-0-0-0-0-0-0-0-|

Chorus (ad lib this progression, cuz I can't follow exactly what he does)
								  x4
|------------|---------------|-------------|--------------|
|*-----------|---------------|-------------|-------------*|
|*-----------|---------------|--5-5--5-5-5-|-------------*|
|--0-----0---|--3----3-3-3-3-|-------------|--5-5--5-5-5--|

For the solo, just repeat everything, the only change coming in the 
Pre-Chorus. For that you just play E|-3-3-3-3-3-3-3-3-| four times with 
same rhythm.

That's about it...this tab is hardly perfect, and I know where my errors 
are, I just don't know the correct way to play them, but it sounds decent 
when you play it. Any corrections would be greatly appreciated, etc.
	  

Search Paypal
auto scroll beats size up size down change color hide chords drawings
tab show chords e-chords YouTube Clip e-chords hide all tabs e-chords go to top tab