Alexandre Desplat

Jimmy Squirrel And Co

Alexandre Desplat

bass

by  ALEFFEDERICO

save to print version add songbook text version e-mail correct tuner
chordsukulelecavacokeyboardtabbassdrumsharmonicaflute Guitar Pro
close

there isn't a video lesson for this song

chords

Jimmy Squirrel And Co

	  		
A|---------8------------------------------6--8---6--------6------------------| 
E|-6-6--10----10--8--6--10--6---------8-8-----------8--5-----8---------------| 
C|-----------------------------5--------------------------------5------------| 
G|---------------------------------------------------------------------------| 

A|---------8----------------------8-8---12--8-----10---------8--------6------| 
E|-6-6--10----10--8--6--10--6------------------11----11--10----10--8----8----| 
C|-----------------------------5---------------------------------------------| 
G|---------------------------------------------------------------------------| 

Reapeat 3 times 

Outro 

A|---------8------8------------8------8------------8------8------------------| 
E|--6--10-----10--------5--10-----10--------6--10-----10---------------------| 
C|---------------------------------------------------------------------------| 
G|---------------------------------------------------------------------------| 
		  

See also:

bass Deep Purple - Into The Fire bass Deep Purple - Burn Ver.(2) bass Deep Purple - Knocking At Your Back Door bass Deep Purple - Smoke On The Water bass Deep Purple - Highway Star bass Deep Purple - Space Truckin'
e-chords

Other versions:

bass Alexandre Desplat - Jimmy Squirrel And Co
auto scroll beats size up size down change color hide chords drawings
tab show chords e-chords YouTube Clip e-chords hide all tabs e-chords go to top tab

share