Alborosie

home > Alborosie

Kingston Town Bass Tab

Alborosie

Difficulty: EasyEasy

by Laylarib

tuner correct add songbook print version text version save to e-mail
chordsukulelecavacokeyboardtabbassdrumsharmonicsflute Guitar Pro
chords

Kingston Town

	  G|------------------------------------------------------------------------| 
D|--2-2-2--------2-2-2-----------------------------------2-2-2------------|  
A|----------2-2-----------2-2------0-0-0------3-3-3---------------2-2-----|    
E|------------------------------------------------------------------------| 


G|------------------------------------------------------------------------| 
D|--2-2-2--------2-2-2-----------------------------------2-2-2------------|  
A|----------2-2-----------2-2------0-0-0------3-3-3---------------2-2-----|    
E|------------------------------------------------------------------------| 

G|------------------------------------------------------------------------| 
D|--2-2-2--------2-2-2-----------------------------------2-2-2------------|  
A|----------2-2-----------2-2------0-0-0------3-3-3---------------2-2-----|    
E|------------------------------------------------------------------------| 
	  

there isn't a video lesson for this song

request
Search Paypal
auto scroll beats size up size down change color hide chords drawings
tab show chords e-chords YouTube Clip e-chords hide all tabs e-chords go to top tab